Cifra Club

Paulo

Comunidade Católica Colo de Deus

Cifrado: Principal (guitarra y guitarra eléctrica)
tono: Ab (con acordes en la forma de G) Capotraste en 1ª casa
[Intro] G  Em  G  Em

E|--------------------------------------------------|
B|--------------------------------------------------|
G|--------------------------------------------------|
D|------3---1--------------------3---1--------------|
A|----------------4/3p1h3------------------4/3p1h3--|
E|--4-4---4----4-------------4-4---4----4-----------|

E|--------------------------------------------------|
B|--------------------------------------------------|
G|--------------------------------------------------|
D|------3---1--------------------3---1--------------|
A|----------------4/3p1h3------------------4/3p1h3--|
E|--1-1---1----1-------------1-1---1----1-----------|

     G                              Em
"Infiel" foi a resposta do meu amor
       C7M                        G
A ignorância fechou os meus olhos
             G                  Em
Não te conhecia e fiz o meu caminho
               C7M   C  G
Não encontrava outro

         C                         G
Mas Ele veio, o Eterno desceu do céu
            C
Se fez um comigo
                          G
E ao te olhar, fui semelhança

          G
Se o meu coração quebrantado
   Em
É tudo que você quer
C9        D
Eu estou aqui
    G    
Rendido pela tua graça
      Em
Alcançado pelo teu amor
         C9                      D
Eu não suporto o peso da tua glória

          G
Se o meu coração quebrantado
   Em
É tudo que você quer
C9        D
Eu estou aqui
    G    
Rendido pela tua graça
      Em
Alcançado pelo teu amor
         C9                      D
Eu não suporto o peso da tua glória

                   C         G
O amor veio me ensinar o amor
                    Em       D
O amor veio me ensinar o amor
                   C         G
O amor veio me ensinar o amor
                 Em
E não há nenhum outro
                  D
E não há nenhum outro

                   C         G
O Amor veio me ensinar o amor
                    Em       D
O Amor veio me ensinar o amor
                   C         G
O Amor veio me ensinar o amor
                 Em
E não há nenhum outro
                  D
E não há nenhum outro

         C                          G
Mas Ele veio, o Eterno desceu do céu
              C
Se fez um comigo
                          G
E ao te olhar, fui semelhança
00:00 / 00:00
Otros videos de esta canción
Repetir
Otros videos de esta canción
Composición de Francielly Francelino
Colaboración y revisión:
  • Hugu Gomes
  • Francielly Francelino
  • Norberto Alves
357 vistas
    • ½ Tono
    • A
    • Bb
    • B
    • C
    • Db
    • D
    • Eb
    • E
    • F
    • F#
    • G
    • Ab
  • Agregar a la lista

    0 comentarios

    Ver todos los comentarios

    ¿Lograste tocar?

    1 Tocaron 2 Aún no

    ¡Graba un video tocando Paulo y envíanoslo!

    00:00 / 00:00
    OK