Cifra Club

Eterno Céu

Comunidade Católica Shalom

Cifrado: Principal (guitarra y guitarra eléctrica)
tono: D
[Intro]

  F      Gm  Am        Bb
E|----0h1-1-----------0h1-1-0----|
B|-1-1-------------1-1---------1-|
G|-------------------------------|
D|-------------------------------|
A|-------------------------------|
E|-------------------------------|

 F      Gm  Am        Bb
E|----0h1-1-----------0h1-1-0----|
B|-1-1-------------1-1---------1-|
G|-------------------------------|
D|-------------------------------|
A|-------------------------------|
E|-------------------------------|

[Primeira Parte]

F  Gm          Am                Bb          F
  Minha vida é só um instante e logo vai passar
  Gm            Am               Bb            F
Tu sabes, oh meu Deus, eu tenho hoje para Te amar
 Gm            Am            Bb         C7
Passarei o meu céu fazendo o bem nesta terra

    Bb
Senhor
                  C
Sem véu quero te ver
                   Dm
Tua glória contemplar
                C   Bb/D  Am/E  Bb/D  Bb
Pois só existo pa - ra    te    a -  mar

                  C
Sem véu quero te ver
                   Dm
Tua glória contemplar
                C   Bb/D  Am/E  Bb/D  Bb  C
Pois só existo pa - ra    te    a -  ma...ar

   F               Gm
Voarei para Te encontrar
                  Bb
Teus Louvores entoar
     Bbm          F/A   C/E
No eterno céu, Jesus

   F               Gm
Voarei para Te encontrar
                  Bb
Teus Louvores entoar
     Bbm          F/A
No eterno céu, Jesus

( Gm  Bbm )

Am         Dm        Bb      Bbm
  E juntos cantaremos a tua glória
Am          Dm         Bb          Bbm
  Ao contemplar tua face que brilha como o sol
Am      Dm      Bb            Bbm    F/A  C/E
Jesus enfim viverei de amor eternamente

   F               Gm
Voarei para Te encontrar
                  Bb
Teus Louvores entoar
     Bbm          F/A  C/E
No eterno céu, Jesus

   F               Gm
Voarei para Te encontrar
                  Bb
Teus Louvores entoar
     Bbm          F/A
No eterno céu, Jesus
Bb                   F/A
   No eterno céu, Jesus
Bbm                  F/A
   No eterno céu, Jesus

E|---0h1-5\3-1-0-----------------|
B|-1-------------3---------------|
G|-------------------------------|
D|-------------------------------|
A|-------------------------------|
E|-------------------------------|
Composición de Laura Salvador / Lilian Ingrid / Nicodemos Costa / Pedro Ivo / Susi Castro
Colaboración y revisión:
  • Ryan Medeiros
  • João Borges
  • Carlos Ribeiro
183 vistas
    • ½ Tono
    • A
    • Bb
    • B
    • C
    • Db
    • D
    • Eb
    • E
    • F
    • F#
    • G
    • Ab
  • Agregar a la lista

    0 comentarios

    Ver todos los comentarios
    00:00 / 00:00
    Otros videos de esta canción
    Repetir Calidad Automático
    Otros videos de esta canción
    00:00 / 00:00
    Automático
    OK