Cifra Club

Hino Corinthians

Corinthians

Tablatura: Principal
reproducciones 39
Tono: D
E|-3-2----------------2-0--------0------------------0-----2-2-
B|-----3------0-0-2-3-----3-2-2----2-0----------0-2---3-2-----
G|-------4-4---------------------------3-3--3-3---------------
D|------------------------------------------------------------
A|------------------------------------------------------------
E|------------------------------------------------------------

E|-2-0---0-0--0-0-2-3-7-5-3-2-2--5-2-0------2-2-3-2-0---------
B|-----3-------------------------------4-4------------3-2-----
G|--------------------------------------------------------4--- 2x
D|------------------------------------------------------------
A|------------------------------------------------------------
E|------------------------------------------------------------

E|-------------0---3-3-2-0-----2--------------0---3-3-2-0-----2-
B|-0-0-0-2-3-4---2---------3-2----0-0-0-2-3-4---2---------3-2---
G|--------------------------------------------------------------
D|--------------------------------------------------------------
A|--------------------------------------------------------------
E|--------------------------------------------------------------

E|-3-2---0-0--0----------5-2------2-2-3-2---------------------
B|-----3-------3-2-3-3------5-4-4---------3-2-----------------
G|------------------------------------------6-4-------------
D|----------------------------------------------------------
A|----------------------------------------------------------
E|----------------------------------------------------------
Acordes para:
    Compositor: GuiiColaboración y revision:
    • Micael Umeda
    • lucas Almeida
    • Guilherme Santos

    0 comentarios

      mostrar más comentarios

      ¿Conseguiste tocar?

      18tocaron0aún no

      ¡Graba un vídeo tocando Hino Corinthians y envianoslo!

      00:00 / 00:00
      outros vídeos desta música
      repetirqualidadeautomática
      Outro vídeos desta música
        00:00 / 00:00
        automática
        OK