Enviar cifraEntrar

Hino Corinthians

Corinthians

Acordes: Principal
reproducciones 18
Tono: D

E|-3-2----------------2-0--------0------------------0-----2-2-
B|-----3------0-0-2-3-----3-2-2----2-0----------0-2---3-2-----
G|-------4-4---------------------------3-3--3-3---------------
D|------------------------------------------------------------
A|------------------------------------------------------------
E|------------------------------------------------------------


E|-2-0---0-0--0-0-2-3-7-5-3-2-2--5-2-0------2-2-3-2-0---------
B|-----3-------------------------------4-4------------3-2-----
G|--------------------------------------------------------4--- 2x
D|------------------------------------------------------------
A|------------------------------------------------------------
E|------------------------------------------------------------


E|-------------0---3-3-2-0-----2--------------0---3-3-2-0-----2-
B|-0-0-0-2-3-4---2---------3-2----0-0-0-2-3-4---2---------3-2---
G|--------------------------------------------------------------
D|--------------------------------------------------------------
A|--------------------------------------------------------------
E|--------------------------------------------------------------


E|-3-2---0--0----------5-2------2-2-3-2---------------------
B|-----3------3-2-3-3------5-4----------3-2-----------------
G|------------------------------------------6-4-------------
D|----------------------------------------------------------
A|----------------------------------------------------------
E|----------------------------------------------------------
  • 1
  • 2
  • 3
  • 4
  • 5
  • 6
  • 7
  • 8
  • 9
  • 10
  • 11
  • 12
    Acordes para:
      Composición: GuiiColaboración y revision:
      • Cebo
      • guii92

      0 comentarios

        mostrar mas comentarios

        ¿Conseguiste tocar?

        17tocaron0aún no

        ¡Grave un vídeo tocando Hino Corinthians y envie para nosotros!

        00:00 / 00:00
        outros vídeos desta música
        repetirqualidadeautomática
        • automática
        Outro vídeos desta música
          00:00 / 00:00
          automática
          • automática
          Acordes para:guitarra
          dificuldadreproduccionescontribuciones
          cerrarplay/pause subir/bajar velocidad
            acordes
            cerrar
            OK
            Feedback