Cifra Club

Aprenda

... É isso

CPM 22

Tablatura: Principal (guitarra)
tono: B
(intro)  B F# E

E |------------------|
B |------------------|
G |------8--8--4-----|(riff 1)
D |------x--x--x-----|
A |------6--6--2-----|
E |------------------|

B              F#            E
Lembro de coisas que eu falei naquela vez que eu te encontrei
B        F#              E
Só que você nao me entendeu
B             F#       E
o que eu queria te dizer é sobre o que eu sempre sonhei
B          F#           E
E não desisto por ninguém

(B C# D# E*)
Não pretendo arriscar ate quando aguentar
Pra vê ate onde vai dar
Não teria sentido viver sem tentar...
B  F#            E
   viver sem tentar!
F#                    E*
Tanta coisas que eu preciso te dizer
F#                    E*
Tanta coisas que eu ainda vou fazer
F#                    E
Tanta coisas que eu nem sei por onde comecar
(repete intro e riff 1)

(solo 2x)

E |----------------------------------------------|
B |----------------------------------------------|
G |-----11-11-11---11-11-11---9-9-9-8---8-9------|3x
D |-----x--x--x----x--x--x----x-x-x-x---x-x------|
A |-----9--9--9----9--9--9----7-7-7-6---6-7------|
E |----------------------------------------------|

(na terceira vez vc imenda com as oitavas de cima)
E |----------------------------------------------|
B |----------------------------------------------|
G |-----9/8-6---6-6---6-6--6/8/6---4-4-----------|
D |-----x-x-x---x-x---x-x--x-x-x---x-x-----------|
A |-----7/6-4---4-4---4-4--4/6/4---2-2-----------|
E |----------------------------------------------|

(depois vem esse solo)
E |----------------------------------------------------------------------|
B |----------------------------------------------------------------------|
G |----------------------------------------------------------------------|
D |--------9-------------9------------------------------9--9/11-9-9/11-9-|
A |-----9~-----9-9h11-9~-----9-9h11-7~--9h11-7-9/11-9~----9--------------|
E |----------------------------------------------------------------------|

E |------------------------------------------14---------14-------------14----14----14--|
B |-------------------------12-12h14----12-14--14--14-12-14-------14-12-14----14----14-|
G |------9-11-11h13---11-13------------------------------------------------------------|
D |-9-11------------13-----------------------------------------------------------------|
A |------------------------------------------------------------------------------------|
E |------------------------------------------------------------------------------------|
Composição de Badauí / Wally
Colaboración y revision:
  • Ana Carolina
46 reproducciones
    • ½ Tono
    • A
    • Bb
    • B
    • C
    • Db
    • D
    • Eb
    • E
    • F
    • F#
    • G
    • Ab
  • Adicionar à lista

    0 comentarios

    Ver todos os comentários

    ¿Conseguiste tocar?

    6 Tocaram 0 Ainda não

    Grave um vídeo tocando ... É isso e nos envie!

    00:00 / 00:00
    outros vídeos desta música
    repetir qualidade Automático
    Outros vídeos desta música
    00:00 / 00:00
    Automático
    OK