Cifra Club

Aprenda

60 Segundos

CPM 22

Tablatura: Principal (guitarra)
tono: Ab
quer conhecer minha banda www.charliebrownjr.na-web.net - www.krust.cjb.net

Intro:

(Db5,Eb5,Bbm,F#m)
Alguma vezes eu pensei em coisas passadas
Lembro daquela vez que não deu em nada
Todo dia nessa vida vou estar em algum lugar
Pra tentar outra vez
Não quero mais nada

Guitarra 1-(C#5,D#5,A#m,F#m)
Guitarra 2-Riff 1

Só te encontrar
Em algum lugar


Riff 2

Intro

(Db5,Eb5,Bbm,F#m)
Um dia desses eu lembrei
que não valeu nada
Quanto tempo esperei
as mesmas palavras
Eu não tinha mais saída pra tentar recomeçar
Foi melhor esquecer
Não quero mais nada

Só te encontrar
Em algum lugar

###############################################################################
Intro
e|---------------------------------------------------------------\
B|---------------------------------------------------------------|
G|---------------------------------------------------------------|
D|-----6-------6--------6----------------6-------6-------6-------|
A|-4-44-4--6-66-6---------------6-4--4-44-4--6-66-6------------4-|
E|-----------------6-66-6---22-6---------------------6-66-6-2--2-/

Riff 1
    1   2   3   4
   ___ ___ ___ ___
e|-4-4-6-6-6-6-2-2-\
B|-4-4-6-6-6-6-2-2-|
G|-6-6-8-8-6-6-2-2-| Enquanto a guitarra faz os acordes, 
D|-----------------| tipo C#5 = 1, D#5 = 2, A#m = 3 e 
A|-----------------| F#m = 4
E|-----------------/

Riff 2
e|----------------------------------------------------------------------------\
B|--------------------------------------9----9--------------------------------|
G|-------------------------------6-8/10---10---10-8-6-------------------------|
D|--6/8-6~---6/8-6~---6/8-6~---6------------------------6/8-6~---6------------|
A|8--------8--------8--------8------------------------8--------8---8~-8-6-8-4-|
E|----------------------------------------------------------------------------/
Composição de Gianfranco Portogallo
Colaboración y revision:
  • paulo yamashiro
  • Gabriel Tôrres
225 reproducciones
    • ½ Tono
    • A
    • Bb
    • B
    • C
    • Db
    • D
    • Eb
    • E
    • F
    • F#
    • G
    • Ab
  • Adicionar à lista

    0 comentarios

    Ver todos os comentários

    ¿Conseguiste tocar?

    2 Tocaram 0 Ainda não

    Grave um vídeo tocando 60 Segundos e nos envie!

    00:00 / 00:00
    outros vídeos desta música
    repetir qualidade Automático
    Outros vídeos desta música
    00:00 / 00:00
    Automático
    OK