Cifra Club

Aprenda

Anteontem

CPM 22

Tablatura: Versão 2 (guitarra)
tono: C
Riff 1:
E:----    ---
B:----    ---
G:----    -5- 
D:-10- ou -5- 
A:-10-    -3-
E:-8--    ---
   PM      PM

Riff 2:
E:------------------------------------------:
B:------------------------------------------:
G:-10-9-----------10-9--------10-9-12-12-12-:
D:-10-9-10-10-10--10-9-7-7-7—-10-9-12-12-12-:
A:-8—-7-10-10-10--8—-7-7-7-7—-8—-7-10-10-10-:
E:------8—-8—-8--------5-5-5----------------:

Verso:
    C               G                D              F
Meu mundo girava e o seu controlava o que havia de errado no meu

*Essa base se repete por toda a musica

 Riff 3:
G:-------------------------------------5-3—--:
D:-3h2-3h2-5~--3h2-3h2-5~--3h2-3h2-5~------5-:

Riff 4:
G:-5-4----5-4----5-4----5-4----:
D:-----5~-----3~-----5~-----3~-:

Riff 5:
E:----------------------------------------:
B:----------------------------------------:
G:-5-4--------5-4--------5-4-------5-3-10-:
D:-5-4-5-5-5—-5-4-3-3-3--5-4-5-5-5-5-3-10-:
A:-3-2-5-5-5--3-2-3-3-3--3-2-5-5-5-3-1-8--:
E------3-3-3------1-1-1------3-3-3--------:

Ordem:
Riff 1
Riff 2
Riff 1
Riff 2
Riff 1
Verso 
Riff 3 (com a base do verso)
Verso
Riff 4 (com base do verso)
Riff 5
Verso (repete até o final, depois Riff 3 entra junto)
Composição de Wally
Colaboración y revision:
  • paulo yamashiro
4 reproducciones
    • ½ Tono
    • A
    • Bb
    • B
    • C
    • Db
    • D
    • Eb
    • E
    • F
    • F#
    • G
    • Ab
  • Adicionar à lista

    0 comentarios

    Ver todos os comentários

    ¿Conseguiste tocar?

    0 Tocaram 0 Ainda não

    Grave um vídeo tocando Anteontem e nos envie!

    00:00 / 00:00
    outros vídeos desta música
    repetir qualidade Automático
    Outros vídeos desta música
    00:00 / 00:00
    Automático
    OK