Cifra Club

Aprenda

Anteontem

CPM 22

Tab de bajo: Principal
Tabber: Elton Bugsbunny (bugsgdv@quimica.ufpr.br)
Tom: C

Intro:

A:---3333333333333333333333--------------|

G:---------------------------------------|
D:-----------------------5---------------|
A:---8-7-3---8-7-0---8-7-----------------|
E:---------------------------------------|

A:---3333333333333333333333--------------|

G:---------------------------------------|
D:-----------------------5---------------|
A:---8-7-3---8-7-0---8-7-----------------|
E:---------------------------------------|

Base: 

G:---------------------------------------|
D:---------------------------------------|
A:---3333333---------5555555-8888888-----|
E:-----------3333333---------------------|

G:---------------------------------------|
D:---------------------------------------|
A:---3333333---------5555555-8888-8-7-5-3|
E:-----------3333333---------------------|


A:---3-3-3-3-3-3-3-3-3-3-3-3-------------|

G:---------------------------------------|
D:---------------------------------------|
A:---3-2-8---3-2-----3-2-8---3-2---------|
E:---------------3---------------3-------|

G:---------------------------------------|
D:---------------------------------------|
A:---3333333---------5555555-8888888-----|
E:-----------3333333---------------------|

Fim:

A:---3-----------------------------------|

Bom, eh minha primeira tablatura, mas tenho certeza q estah certa, 
tablei ela apartir da cifra q o Portoga me enviou via e-mail.



_______________________________________________________
Contribuição: Elton Bugsbunny(bugsgdv@quimica.ufpr.br)
Composição de Wally
28 reproducciones

0 comentarios

Ver todos os comentários

¿Conseguiste tocar?

1 Tocaram 0 Ainda não

Grave um vídeo tocando Anteontem e nos envie!

00:00 / 00:00
outros vídeos desta música
repetir qualidade Automático
Outros vídeos desta música
00:00 / 00:00
Automático
OK