Cifra Club

Aprenda

Apostas e certezas

CPM 22

Tablatura: Principal (guitarra)
tono: C
   C                   Am
   Quantas vezes eu fugi
            F
   Distraindo os meus sentidos
   C                  Am
   Tantas vezes nada quis
            F
   Destratando os meus amigos
   C                  Am
   Outras tantas discuti
          F
   Só pra não te enxergar
   C                      Am   F
   Estava aqui, (estava aqui)
   Am           G            F
   Entre promessas e despesas
   F             Am   
   Apostas e certezas                2x
     G      F 
   Cada vez mais
 
   C        Am             F   
   ahhhhh, ahhh   Quero fugir das derrotas
   C                  Am        F         
   ahhhh   Sorriso na cara, estou de volta
   

   C                    Am
   Algumas vezes eu menti
          F
   Desprezando os teus sorrisos
   C                      Am
   Todas as vezes eu te quis
           F
   Provocando, discutindo
   C                    Am
   Traz todo amor pra mim
          F
   Sem fugir ou me estranhar
   C                       Am F
   Ta tudo aqui (ta tudo aqui)
    Am           G            F
   Entre promessas e despesas
   F             Am   
   Apostas e certezas                2x
     G      F 
   Cada vez mais
 C Am       F   
   Quero fugir das derrotas
 C              Am        F         
   Sorriso na cara, estou de volta

Finalzinho da música
Gtr.1
e|----------------------------------------|
B|----------------------------------------|
G|-5-x-x--9-x-x---------------------------|
D|-5-x-x--9-x-x--7-7-7-7-7-7--3-3-3-3-3-3-|
A|-3-x-x--7-x-x--7-7-7-7-7-7--3-3-3-3-3-3-|
E|---------------5-5-5-5-5-5--1-1-1-1-1-1-|(3x)
Gtr.2
e|--------------------------------------------------|
B|--------------10-10-10-10-10-10-------------------|
G|-5-x-x--9-x-x--9--9--9--9--9--9-10-10-10-10-10-10-|
D|-x-x-x--x-x-x--7--7--7--7--7--7--x--x--x--x--x--x-|
A|-3-x-x--7-x-x--------------------8--8--8--8--8--8-|
E|--------------------------------------------------|(3x)
"Estou de volta!"(3x)
Composição de Carlos Dias
Colaboración y revision:
  • aDiL_kBçA®
  • João Reinaldo
190 reproducciones
    • ½ Tono
    • A
    • Bb
    • B
    • C
    • Db
    • D
    • Eb
    • E
    • F
    • F#
    • G
    • Ab
  • Adicionar à lista

    0 comentarios

    Ver todos os comentários

    ¿Conseguiste tocar?

    14 Tocaram 1 Ainda não

    Grave um vídeo tocando Apostas e certezas e nos envie!

    00:00 / 00:00
    outros vídeos desta música
    repetir qualidade Automático
    Outros vídeos desta música
    00:00 / 00:00
    Automático
    OK