Cifra Club

Aprenda

Dias Atrás

CPM 22

Tablatura: Versão 3 (guitarra)
tono: B
intro:
guitarra solo:
E |----------|     E|-----------|
B |--12--11--|     B|--14--12---|      (esse riff também é usado no refrão pela guitarra solo)
G |--11--11--| 8x  G|--11--11---| 8x
D |----------|     D|-----------|
A |----------|     A|-----------|
E |----------|     E|-----------|

guitarra base:(B F# E F# 2 vezes) E  G#m E G#m

E     G#m     E            G#m
Nunca mais espero te encontrar
     E    G#m        E            G#m
Por tudo      que você me fez passar
E       G#m           E
Tantos dias sem entender
     G#m         E G#m               F# E
Esperando por você,  que não vai voltar

 B      F#      E
  Dias atrás pensava em você
        F#
  E não é assim
  B            F#
  mas olho pra trás
      E
  Mas penso e sigo em frente
         F#               E   G#m E G#m
  Pra nunca mais viver assim

 E     G#m E            G#m
 Tanto faz o que vai rolar   (o que vai rolar)
      E  G#m      E           G#m
 Mas nunca     espero voltar lá
E       G#m            E
 Sempre tento me esconder
      G#m          E
 Para deixar de te ver
G#m            F#  E
 Acho que é melhor

B      F#
 Dias atrás
     E
 Pensava em você
     F#
 Não é assim
  B            F#
 mas olho pra trás
       E
 mais penso e sigo em frente
      F#
 pra nunca mais viver assim

Base do solo: (G#m E G#m E G#m E F# E G#m E G#m E G#m E - F# E F# E)

E |----------------------------------------------------------------------------|
B |----------------------------------------------------------------------------|
G |----------------------------------------------------------------------4---4-|
D |-6-6-6-6-6-6-4/6-6-6-6-6-6-6-4/6-6-6-6-6-6-6-4/6-6-6-6-6-6-6-4/6-6-6-6---6--|
A |----------------------------------------------------------------------------|
E |----------------------------------------------------------------------------|

E |-------------------------------------------------------------------------------------------------------------------------|
B |-----------------------------------------7-7-7-7-7-7-9-9-9-9-9-9-9-11-11-11-11-11-11-11-12-12-12-12-11-9-11-11-11-11-9-7-|
G |-4-4-4-4-4-6-4-8-8-8-8-6-5-4-4-4-4-4-4-4---------------------------------------------------------------------------------|
D |-------------------------------------------------------------------------------------------------------------------------|
A |-------------------------------------------------------------------------------------------------------------------------|
E |-------------------------------------------------------------------------------------------------------------------------|

E |---------------------------------------------------------------|
B |-7-7-7-7-7-7-7-7-7-7-7-7-7-7-7-5-5-5-5-5-5-7-7-7-7-7-7-7-5-5-5-|
G |---------------------------------------------------------------|
D |---------------------------------------------------------------|
A |---------------------------------------------------------------|
E |---------------------------------------------------------------|
(obs: pode haver algumas notas a mais porem esta muito facil de tocar é só escutar
bastante a musica e tentar tocar junto com ela e vc conseguira eliminar essas notinhas
a mais do solo)

B      F#
Dias atrás
E
Pensava em você
F#
Não é assim
B        F#
mas olho pra trás
      E
mais penso e sigo em frente
      F#                E
pra nunca mais viver assim

(B, F#, E, F#)
Viver assim...

(E G#m E G#m) 4x
Composição de Ricardo Galano
Colaboración y revision:
141 reproducciones
    • ½ Tono
    • A
    • Bb
    • B
    • C
    • Db
    • D
    • Eb
    • E
    • F
    • F#
    • G
    • Ab
  • Adicionar à lista

    0 comentarios

    Ver todos os comentários

    ¿Conseguiste tocar?

    1 Tocaram 0 Ainda não

    Grave um vídeo tocando Dias Atrás e nos envie!

    00:00 / 00:00
    outros vídeos desta música
    repetir qualidade Automático
    Outros vídeos desta música
    00:00 / 00:00
    Automático
    Capítulos
    • Tocando a música
    • Apresentação / Equipamentos
    • Acordes Introdução (guitarra base)
    • Tocando Introdução
    • Riff da Introdução
    • Base da introdução
    • Riff - Sugestão 1
    • Riff - Sugestão 2
    • Riff - Sugestão 3
    • Acordes Primeira parte (guitarra base)
    • Tocando Primeira parte
    • Padrão das estrofes
    • Riff Primeira parte
    • Dicas do refrão
    • Tocando refrão
    • Ensinando refrão (base)
    • Riff do Refrão
    • Dicas da repetição
    • Tocando Segunda parte - Solo
    • Solo - Parte 1 de 4
    • Solo - Parte 2 de 4
    • Solo - Parte 3 de 4
    • Solo - Parte 4 de 4
    • Solo completo
    • Encerramento
    OK