Cifra Club

Aprenda

Dias Atrás

CPM 22

Tablatura: Versão 4 (guitarra)
tono: B
Intro:

(Guitarra 1)
   B                 F#m               E                 F#m
E|----------------------------------------------------------------------|
B|----------------------------------------------------------------------|
G|-------------------11-11-11-11-11----9-9-9-9-9-9-9-----11-11-11-11-11-|
D|-9-9-9-9-9-9-9-----11-11-11-11-11----9-9-9-9-9-9-9-----11-11-11-11-11-|
A|-9-9-9-9-9-9-9-----9-9-9-9-9-9-9-----7-7-7-7-7-7-7-----9-9-9-9-9-9-9--|
E|-7-7-7-7-7-7-7--------------------------------------------------------|

(Guitarra 2)
                          (4x)                      (2x)                            (2x)
E|----------------------------|-------------------------|-------------------------------|
B|-12-12-12-11-11-12-12-12-11-|-14-14-14-12-12-xx-xx-xx-|-12-12-12-11-11-12-12-12-11-11-|
G|-11-11-11-11-11-11-11-11-11-|-11-11-11-11-11-11-11-11-|-11-11-11-11-11-11-11-11-11-11-|
D|----------------------------|-------------------------|-------------------------------|
A|----------------------------|-------------------------|-------------------------------|
E|----------------------------|-------------------------|-------------------------------|

Estrofes:
E|-------------------||
B|-------------------||
G|----11----------11-||
D|-9-----------9-----||
A|---------11--------||
E|-------------------||

Refrão - Solo:
  (24x)                           (8x)                              (8x)
E|-----|-------------------------|----|----------------------------|----|
B|-12--|-11-11-11-12-12-12-12-12-|-12-|-11-11-11-11-12-12-12-12-12-|-12-|
G|-11--|-11-11-11-11-11-11-11-11-|-11-|-11-11-11-11-11-11-11-11-11-|-11-|
D|-----|-------------------------|----|----------------------------|----|
A|-----|-------------------------|----|----------------------------|----|
E|-----|-------------------------|----|----------------------------|----|

E|-------------------------|-------------------------|------|
B|-11-11-11-12-12-xx-xx-xx-|-12-12-12-11-11-xx-xx-xx-|------|
G|-11-11-11-11-11-11-11-11-|-11-11-11-11-11-11-11-11-|------|
D|-------------------------|-------------------------|-9/14~|
A|-------------------------|-------------------------|------|
E|-------------------------|-------------------------|------|

B          F#
Nunca mais espero te encontrar
    B          F#
Por tudo  que você me fez passar
E                     F#                  E
Tantos dias sem entender esperando por você
                F#     E
Que não vai voltar

B        F#
  Dias atrás
    E
Pensava em você
    F#
Não é assim
B            F#
Mas olho pra trás
      E
Mais penso e sigo em frente
      F#
Pra nunca mais viver assim

B           F#
Tanto faz o que vai rolar
      B     F#
Mas nunca espero voltar lá
E                       F#
Sempre tento me esconder
                    E
Pra deixar de te ver
                F#    E
Acho que é melhor

B        F#
  Dias atrás
E
Pensava em você
 F#
Não é assim
B            F#
Mas olho pra trás
    E
Mais penso e sigo em frente
   F#
Pra nunca mais viver assim
Solo:
           (4x)
E|-------------|---------------------------------------------------------------|
B|-------------|---------------------------------------------------------------|
G|-------------|----------4---4-4-4-4-4-4-4-6-4-6/8-8-8-6-4-4-4-4-4-4-4--------|
D|-4/6-6-6-6-6-|-4/6-6-6----6--------------------------------------------------|
A|-------------|---------------------------------------------------------------|
E|-------------|---------------------------------------------------------------|

E|-----------------------------------------------------------------------------|
B|6/7-7-7-7-7-7-7/9-9-9-9-9-9-9-9-9/11-11-11-11-11/12-12-12-12-12-11-9-9/11-11-|
G|-----------------------------------------------------------------------------|
D|-----------------------------------------------------------------------------|
A|-----------------------------------------------------------------------------|
E|-----------------------------------------------------------------------------|
                                                                           (2x)
E|---------------------------|-------------------------------------------------|
B|-11-11-9-7-7-7-7-7-7-7-7---|-----5/7-7-7-7-7-7--5-5-5-5-5--------------------|
G|---------------------------|-------------------------------------------------|
D|---------------------------|-------------------------------------------------|
A|---------------------------|-------------------------------------------------|
E|---------------------------|-------------------------------------------------|

B        F#
  Dias atrás
E
Pensava em você
   F#
Não é assim
B            F#
Mas olho pra trás
      E
Mais penso e sigo em frente
     F#                 B
Pra nunca mais viver assim

          F#
Viver assim
         E      F#                 B
Viver assim pra nunca mais viver assim
         F#
Viver assim
         E        F#                 B
Viver assim pra nunca mais viver assim
Composição de Ricardo Galano
Colaboración y revision:
  • douglas
  • Francisco Lima
65 reproducciones
    • ½ Tono
    • A
    • Bb
    • B
    • C
    • Db
    • D
    • Eb
    • E
    • F
    • F#
    • G
    • Ab
  • Adicionar à lista

    0 comentarios

    Ver todos os comentários

    ¿Conseguiste tocar?

    0 Tocaram 0 Ainda não

    Grave um vídeo tocando Dias Atrás e nos envie!

    00:00 / 00:00
    outros vídeos desta música
    repetir qualidade Automático
    Outros vídeos desta música
    00:00 / 00:00
    Automático
    Capítulos
    • Tocando a música
    • Apresentação / Equipamentos
    • Acordes Introdução (guitarra base)
    • Tocando Introdução
    • Riff da Introdução
    • Base da introdução
    • Riff - Sugestão 1
    • Riff - Sugestão 2
    • Riff - Sugestão 3
    • Acordes Primeira parte (guitarra base)
    • Tocando Primeira parte
    • Padrão das estrofes
    • Riff Primeira parte
    • Dicas do refrão
    • Tocando refrão
    • Ensinando refrão (base)
    • Riff do Refrão
    • Dicas da repetição
    • Tocando Segunda parte - Solo
    • Solo - Parte 1 de 4
    • Solo - Parte 2 de 4
    • Solo - Parte 3 de 4
    • Solo - Parte 4 de 4
    • Solo completo
    • Encerramento
    OK