Cifra Club

Aprenda

Dias Atrás

CPM 22

Tablatura: Versão 5 (guitarra)
tono: B
Introdução:
e|---------------------------------------------------------------|
B|---------------------------------------------------------------|
G|---------------------------------9-9-9-9-9-9-9-----------------|
D|-2-2-2-2-2-2-2---4-4-4-4-4-4-4---9-9-9-9-9-9-9---4-4-4-4-4-4-4-|
A|-2-2-2-2-2-2-2---4-4-4-4-4-4-4---7-7-7-7-7-7-7---4-4-4-4-4-4-4-|
E|-0-0-0-0-0-0-0---2-2-2-2-2-2-2-------------------2-2-2-2-2-2-2-|
 |------------------------------2x-------------------------------|
  Guitarra 1

e|-6-6-6-7-7-7-7-7-|-9-9-9-7-7-7-7-7-|-6-6-6-7-7-7-7-7-|
B|-7-7-7-7-7-7-7-7-|-7-7-7-7-7-7-7-7-|-7-7-7-7-7-7-7-7-|
G|-----------------|-----------------|-----------------|
D|-----------------|-----------------|-----------------|
A|-----------------|-----------------|-----------------|
E|-----------------|-----------------|-----------------|
 |-------8x--------|-------4x--------|-------4x--------|

Passagem:
e|------------------------------|
B|------------------------------|
G|------------------------------|
D|-----m-----m-m------m-----m-m-|
A|-2-2-2-2-2-2-2--6-6-6-6-6-6-6-|
E|-0-0-0-0-0-0-0--4-4-4-4-4-4-4-|
 |--------------2x--------------|

Verso:
e|------------------------------|
B|------------------------------|
G|------------------------------|
D|-----m-----m-m------m-----m-m-|
A|-2-2-2-2-2-2-2--6-6-6-6-6-6-6-|
E|-0-0-0-0-0-0-0--4-4-4-4-4-4-4-|
 |--------------4x--------------|
G#      E  G#                E
Nunca mais espero te encontrar
     G#   E        G#              E
Por tudo    que você me fez passar
G#       E              G#     E           G# E          F# E
 Tantos dias sem entender esperando por você   que não vai voltar

Refrão:
e|---------------------------------------------------------------|
B|---------------------------------------------------------------|
G|---------------------------------9-9-9-9-9-9-9-----------------|
D|-2-2-2-2-2-2-2---4-4-4-4-4-4-4---9-9-9-9-9-9-9---4-4-4-4-4-4-4-|
A|-2-2-2-2-2-2-2---4-4-4-4-4-4-4---7-7-7-7-7-7-7---4-4-4-4-4-4-4-|
E|-0-0-0-0-0-0-0---2-2-2-2-2-2-2-------------------2-2-2-2-2-2-2-|
 |------------------------------2x-------------------------------|
  Guitarra 1

e|-6-6-6-7-7-7-7-7-|-9-9-9-7-7-7-7-7-|-6-6-6-7-7-7-7-7-|
B|-7-7-7-7-7-7-7-7-|-7-7-7-7-7-7-7-7-|-7-7-7-7-7-7-7-7-|
G|-----------------|-----------------|-----------------|
D|-----------------|-----------------|-----------------|
A|-----------------|-----------------|-----------------|
E|-----------------|-----------------|-----------------|
 |-------8x--------|-------4x--------|-------4x--------|
B         F#     E            F#
  Dias atrás pensava em você não é assim
B              F#       E                          F#                 *
Mas olho pra trás mais penso e sigo em frente pra nunca mais viver assim

Passagem:
e|------------------------------|
B|------------------------------|
G|------------------------------|
D|-----m-----m-m------m-----m-m-|
A|-2-2-2-2-2-2-2--6-6-6-6-6-6-6-|
E|-0-0-0-0-0-0-0--4-4-4-4-4-4-4-|
 |--------------2x--------------|

Verso:
e|------------------------------|
B|------------------------------|
G|------------------------------|
D|-----m-----m-m------m-----m-m-|
A|-2-2-2-2-2-2-2--6-6-6-6-6-6-6-|
E|-0-0-0-0-0-0-0--4-4-4-4-4-4-4-|
 |--------------4x--------------|
G#      E  G#                E
Nunca mais espero te encontrar
     G#   E        G#              E
Por tudo    que você me fez passar
G#       E              G#     E           G# E          F# E
 Tantos dias sem entender esperando por você   que não vai voltar

Refrão:
e|---------------------------------------------------------------|
B|---------------------------------------------------------------|
G|---------------------------------9-9-9-9-9-9-9-----------------|
D|-2-2-2-2-2-2-2---4-4-4-4-4-4-4---9-9-9-9-9-9-9---4-4-4-4-4-4-4-|
A|-2-2-2-2-2-2-2---4-4-4-4-4-4-4---7-7-7-7-7-7-7---4-4-4-4-4-4-4-|
E|-0-0-0-0-0-0-0---2-2-2-2-2-2-2-------------------2-2-2-2-2-2-2-|
 |------------------------------2x-------------------------------|
  Guitarra 1

e|-6-6-6-7-7-7-7-7-|-9-9-9-7-7-7-7-7-|-6-6-6-7-7-7-7-7-|
B|-7-7-7-7-7-7-7-7-|-7-7-7-7-7-7-7-7-|-7-7-7-7-7-7-7-7-|
G|-----------------|-----------------|-----------------|
D|-----------------|-----------------|-----------------|
A|-----------------|-----------------|-----------------|
E|-----------------|-----------------|-----------------|
 |-------8x--------|-------4x--------|-------4x--------|
B         F#     E            F#
  Dias atrás pensava em você não é assim
B              F#       E                          F#                 *
Mas olho pra trás mais penso e sigo em frente pra nunca mais viver assim

Solo: (G# E G# E G# E F# E G# E G# E G# E - F# E F# E)
e|-------------------------------|-----------------------------------------------------|
B|-------------------------------|-----------------------------------------------------|
G|-------------------------------|---------4---4-4-4-6-4-6-6b-6b-6-4-6--4-4-4-4--4-6-4-|
D|-4p6-6-6-6-6-4p6-6-6-6-6-6-6-6-|-4p6-6-6---6-----------------------------------------|
A|-------------------------------|-----------------------------------------------------|
E|-------------------------------|-----------------------------------------------------|
 |--------------2x---------------|

e|-------------------------------------------------------------------------------|
B|-7-7-7-7-7/9-9-9-9-9/11-11-11-11-11-(12-12-12-11-9p11)-11-11-11-11-9/7-7-7-7-7-|
G|-------------------------------------------------------------------------------|
D|-------------------------------------------------------------------------------|
A|-------------------------------------------------------------------------------|
E|-------------------------------------------------------------------------------|

e|-----------------------|
B|-(7-7-7-7-7-5-5-5-5-5)-|
G|-----------------------|
D|-----------------------|
A|-----------------------|
E|-----------------------|
 |----------2x-----------|

Refrão:
e|---------------------------------------------------------------|
B|---------------------------------------------------------------|
G|---------------------------------9-9-9-9-9-9-9-----------------|
D|-2-2-2-2-2-2-2---4-4-4-4-4-4-4---9-9-9-9-9-9-9---4-4-4-4-4-4-4-|
A|-2-2-2-2-2-2-2---4-4-4-4-4-4-4---7-7-7-7-7-7-7---4-4-4-4-4-4-4-|
E|-0-0-0-0-0-0-0---2-2-2-2-2-2-2-------------------2-2-2-2-2-2-2-|
 |------------------------------2x-------------------------------|
  Guitarra 1

e|-6-6-6-7-7-7-7-7-|-9-9-9-7-7-7-7-7-|-6-6-6-7-7-7-7-7-|
B|-7-7-7-7-7-7-7-7-|-7-7-7-7-7-7-7-7-|-7-7-7-7-7-7-7-7-|
G|-----------------|-----------------|-----------------|
D|-----------------|-----------------|-----------------|
A|-----------------|-----------------|-----------------|
E|-----------------|-----------------|-----------------|
 |-------8x--------|-------4x--------|-------4x--------|
  Guitarra 2
B         F#     E            F#
  Dias atrás pensava em você não é assim
B              F#       E                          F#                  B
Mas olho pra trás mais penso e sigo em frente pra nunca mais viver assim (viver assim)
            F#                       E
Viver assim (viver assim) viver assim
     F#                   B
Pra nunca mais viver assim (viver assim)
            F#                       E
Viver assim (viver assim) viver assim
     F#
Pra nunca mais viver assim (viver assim)

Final:
e|------------------------------|
B|------------------------------|
G|------------------------------|
D|-----m-----m-m------m-----m-m-|
A|-2-2-2-2-2-2-2--6-6-6-6-6-6-6-|
E|-0-0-0-0-0-0-0--4-4-4-4-4-4-4-|
 |--------------5x--------------|
Composição de Ricardo Galano
46 reproducciones
    • ½ Tono
    • A
    • Bb
    • B
    • C
    • Db
    • D
    • Eb
    • E
    • F
    • F#
    • G
    • Ab
  • Adicionar à lista

    0 comentarios

    Ver todos os comentários

    ¿Conseguiste tocar?

    0 Tocaram 0 Ainda não

    Grave um vídeo tocando Dias Atrás e nos envie!

    00:00 / 00:00
    outros vídeos desta música
    repetir qualidade Automático
    Outros vídeos desta música
    00:00 / 00:00
    Automático
    Capítulos
    • Tocando a música
    • Apresentação / Equipamentos
    • Acordes Introdução (guitarra base)
    • Tocando Introdução
    • Riff da Introdução
    • Base da introdução
    • Riff - Sugestão 1
    • Riff - Sugestão 2
    • Riff - Sugestão 3
    • Acordes Primeira parte (guitarra base)
    • Tocando Primeira parte
    • Padrão das estrofes
    • Riff Primeira parte
    • Dicas do refrão
    • Tocando refrão
    • Ensinando refrão (base)
    • Riff do Refrão
    • Dicas da repetição
    • Tocando Segunda parte - Solo
    • Solo - Parte 1 de 4
    • Solo - Parte 2 de 4
    • Solo - Parte 3 de 4
    • Solo - Parte 4 de 4
    • Solo completo
    • Encerramento
    OK