Cifra Club

Aprenda

Dias Atrás

CPM 22

Tab de bajo: Principal
[Introdução]

Parte 1 de 2
G|----------------------------------------------|
D|----------------------------------------------|
A|-2-2--2-2-2--2-2-2-2--2-2---------------------|
E|--------------------------2-2--2-2-2--2-2-2-2-|

G|----------------------------------------------|
D|----------------------------------------------|
A|----------------------------------------------|
E|-2-2---0-0--0-0-0--0-0-0-0--0-0--2-2--2-2-2---|

G|----------------------------------------------|
D|----------------------------------------------|
A|----------------------------------------------|
E|-2-2-2--4-4--6--------------------------------|

Parte 2 de 2
G|----------------------------------------------|
D|----------------------------------------------|
A|-2-2--2-2-2--2-2-2-2--2-2---------------------|
E|--------------------------2-2--2-2-2--2-2-2-2-|

G|----------------------------------------------|
D|----------------------------------------------|
A|----------------------------------------------|
E|-2-2---0-0--0-0-0--0-0-0-0--0-0--2-2--2-2-2---|

G|----------------------------------------------|
D|----------------------------------------------|
A|----------------------------------------------|
E|-2-2-2-2--2-2---------------------------------|


[Primeira parte]

Nunca mais espero te encontrar...

Parte 1 de 4 ( 5x )
G|----------------------------------------------|
D|----------------------------------------------|
A|----------------------------------------------|
E|-0-0-0-0--0-0-0-0--4-4-4-4--4-4-4-4-----------|

Parte 2 de 4
G|----------------------------------------------|
D|----------------------------------------------|
A|-----------------------------4-4-6------------|
E|-0-0-0-0--0-0-0-0--4-4-4-4-4------------------|

Parte 3 de 4 ( 2x )
G|----------------------------------------------|
D|----------------------------------------------|
A|-7-7-7-7--7-7-7-7-----------4-4-6-------------|
E|------------------4-4-4-4-4-------------------|

Parte 4 de 4
G|----------------------------------------------|
D|----------------------------------------------|
A|-7-7-7-7--7-7-7-7-----------------------------|
E|------------------4-4-4-4--4-4-4-4------------|

G|----------------------------------------------|
D|----------------------------------------------|
A|----------------------------------------------|
E|-2-2--2-2-2-2--0-0-0-0--0-0-0-----------------|


[Refrão]

Dias atrás pensava em você...

Parte 1 de 2
G|----------------------------------------------|
D|----------------------------------------------|
A|-2-2--2-2-2--2-2-2-2--2-2---------------------|
E|--------------------------2-2--2-2-2--2-2-2-2-|

G|----------------------------------------------|
D|----------------------------------------------|
A|----------------------------------------------|
E|-2-2--0-0--0-0-0--0-0-0-0--0-0--2-2--2-2-2----|

G|----------------------------------------------|
D|----------------------------------------------|
A|----------------------------------------------|
E|-2-0-2-4-4-1----------------------------------|

Parte 2 de 2
G|----------------------------------------------|
D|----------------------------------------------|
A|-2-2--2-2-2--2-2-2-2--2-2---------------------|
E|--------------------------2-2--2-2-2--2-2-2-2-|

G|----------------------------------------------|
D|----------------------------------------------|
A|----------------------------------------------|
E|-2-2--0-0--0-0-0--0-0-0-0--0-0--2-2--2-2-2--2-|


[Segunda parte]

Tanto faz o que vai rolar...

Parte 1 de 4 ( 5x )
G|----------------------------------------------|
D|----------------------------------------------|
A|----------------------------------------------|
E|-0-0-0-0--0-0-0-0--4-4-4-4--4-4-4-4-----------|

Parte 2 de 4
G|----------------------------------------------|
D|----------------------------------------------|
A|-----------------------------4-4-6------------|
E|-0-0-0-0--0-0-0-0--4-4-4-4-4------------------|

Parte 3 de 4 ( 2x )
G|----------------------------------------------|
D|----------------------------------------------|
A|-7-7-7-7--7-7-7-7-----------4-4-6-------------|
E|------------------4-4-4-4-4-------------------|

Parte 4 de 4
G|----------------------------------------------|
D|----------------------------------------------|
A|-7-7-7-7--7-7-7-7-----------------------------|
E|------------------4-4-4-4--4-4-4-4------------|

G|----------------------------------------------|
D|----------------------------------------------|
A|----------------------------------------------|
E|-2-2--2-2-2-2--0-0-0-0--0-0-0-----------------|


[Refrão 2]

Dias atrás pensava em você...

Parte 1 de 2
G|----------------------------------------------|
D|----------------------------------------------|
A|-2-2--2-2-2--2-2-2-2--2-2---------------------|
E|--------------------------2-2--2-2-2--2-2-2-2-|

G|----------------------------------------------|
D|----------------------------------------------|
A|----------------------------------------------|
E|-2-2--0-0--0-0-0--0-0-0-0--0-0--2-2--2-2-2----|

G|----------------------------------------------|
D|----------------------------------------------|
A|----------------------------------------------|
E|-2-0-2-4-4-1----------------------------------|

Parte 2 de 2
G|----------------------------------------------|
D|----------------------------------------------|
A|-2-2--2-2-2--2-2-2-2--2-2---------------------|
E|--------------------------2-2--2-2-2--2-2-2-2-|

G|----------------------------------------------|
D|----------------------------------------------|
A|----------------------------------------------|
E|-2-2--0-0--0-0-0--0-0-0-0--0-0--2-2--2-2-2--2-|


[Solo de Guitarra]

Parte 1 de 4 ( 2x )
G|----------------------------------------------|
D|----------------------------------------------|
A|----------------------------------------------|
E|-4-4--4-4-4--0-0-0--0-0-0-0-------------------|

Parte 2 de 4
G|----------------------------------------------|
D|----------------------------------------------|
A|----------------------------------------------|
E|-4-4--4-4-4--0-0-0--0-0-0-0--2-2--2-2-2-------|

G|----------------------------------------------|
D|----------------------------------------------|
A|----------------------------------------------|
E|-0-0-0--0-0-0-0-------------------------------|

Parte 3 de 4 (2x)
G|----------------------------------------------|
D|----------------------------------------------|
A|----------------------------------------------|
E|-4-4--4-4-4--0-0-0--0-0-0-0-------------------|

Parte 4 de 4
G|----------------------------------------------|
D|----------------------------------------------|
A|----------------------------------------------|
E|-4-4--4-4-4--0-0-0--0-0-0-0--2-2--2-2-2-2-----|

G|----------------------------------------------|
D|----------------------------------------------|
A|----------------------------------------------|
E|-0-0-0-0--0-0-0--2-2--2-2-2-2--0-0-0----------|


[Refrão 3]

Dias atrás pensava em você...

Parte 1 de 4
G|----------------------------------------------|
D|----------------------------------------------|
A|-2-2--2-2-2--2-2-2-2--2-2---------------------|
E|--------------------------2-2--2-2-2--2-2-2-2-|

G|----------------------------------------------|
D|----------------------------------------------|
A|----------------------------------------------|
E|-2-2--0-0--0-0-0--0-0-0-0--0-0--2-2--2-2-2----|

G|----------------------------------------------|
D|----------------------------------------------|
A|----------------------------------------------|
E|-2-0-2-4-4-1----------------------------------|

Parte 2 de 4
G|----------------------------------------------|
D|----------------------------------------------|
A|-2-2--2-2-2--2-2-2-2--2-2---------------------|
E|--------------------------2-2--2-2-2--2-2-2-2-|

G|----------------------------------------------|
D|----------------------------------------------|
A|----------------------------------------------|
E|-2-2--0-0--0-0-0--0-0-0-0--0-0--2-2--2-2-2----|

G|----------------------------------------------|
D|----------------------------------------------|
A|-----------1----------------------------------|
E|-2-0-2-4-4------------------------------------|

parte 3 de 4 
G|----------------------------------------------|
D|----------------------------------------------|
A|-2-2-2-2--2-2-2-2--2-2-2-2--2-2-2-2-----------|
E|----------------------------------------------|

G|----------------------------------------------|
D|----------------------------------------------|
A|----------------------------------------------|
E|-2-2-2-2--2-2-2-2--2-2-2-2--2-2-2-2-----------|

G|----------------------------------------------|
D|----------------------------------------------|
A|----------------------------------------------|
E|-0-0--0-0-0--0-0-0-0--0-0--2-2--2-2-2--2-0-2--|

G|----------------------------------------------|
D|----------------------------------------------|
A|-----1----------------------------------------|
E|-4-4------------------------------------------|

Parte 4 de 4
G|----------------------------------------------|
D|----------------------------------------------|
A|-2-2-2-2--2-2-2-2--2-2-2-2--2-2-2-2-----------|
E|----------------------------------------------|

G|----------------------------------------------|
D|----------------------------------------------|
A|----------------------------------------------|
E|-2-2-2-2--2-2-2-2--2-2-2-2--2-2-2-2-----------|

G|----------------------------------------------|
D|----------------------------------------------|
A|----------------------------------------------|
E|-0-0--0-0-0--0-0-0-0--0-0--2-2--2-2-2--2-2-2--|

G|----------------------------------------------|
D|----------------------------------------------|
A|----------------------------------------------|
E|-2--2-2--0------------------------------------|
Composição de Ricardo Galano
Colaboración y revision:
  • Reginaldo Costa
104 reproducciones

0 comentarios

Ver todos os comentários

¿Conseguiste tocar?

8 Tocaram 1 Ainda não

Grave um vídeo tocando Dias Atrás e nos envie!

00:00 / 00:00
outros vídeos desta música
repetir qualidade Automático
Outros vídeos desta música
00:00 / 00:00
Automático
Capítulos
  • Tocando a música
  • Apresentação / Equipamentos
  • TAB - Introdução
  • TAB - Primeira parte
  • TAB - Refrão
  • TAB - Solo de guitarra
  • TAB - Refrão 3
  • Encerramento
OK