Cifra Club

Aprenda

Dias Atrás

CPM 22

Tablatura: Versão 6 (guitarra)
tono: E
e]-------------------------------------------------------------------
B]-12-12-12-11-11-11-12-12-12-11-11-11-11-11-11-11--------------------
G]-11-11-11-11-11-11-11-11-11-11-11-11-11-11-11-11------------------  4x
D]-------------------------------------------------------------------
A]-------------------------------------------------------------------
E]-------------------------------------------------------------------
 

e]------------------------------------------------------------------
B]-14-14-14-12-12-12-14-14-14-12-12-12-12-12-12-12------------------
G]-11-11-11-11-11-11-11-11-11-11-11-11-11-11-11-11------------------ 2x
D]------------------------------------------------------------------
A]------------------------------------------------------------------
E]------------------------------------------------------------------


e]-------------------------------------------------------------------
B]-12-12-12-11-11-11-12-12-12-11-11-11-11-11-11-11-------------------
G]-11-11-11-11-11-11-11-11-11-11-11-11-11-11-11-11------------------- 2x
D]-------------------------------------------------------------------
A]-------------------------------------------------------------------
E]-------------------------------------------------------------------


e]-------------------------
B]------------------------
G]----4--------------11-
D]------------------------
A]--------------11------
E]------------------------

e]----------------------------
B]---------------------------
G]----11------------11-----    6x
D]-9-------------9----------
A]------------11------------
E]---------------------------


e]-------------------------------------------------
B]-------------------------------------------------
G]-------------------------------------------------
D]-11-11-11-11-11-11-11-11-----9-9-9-9-9-9---------
A]--9-9--9--9--9--9--9---9-----7-7-7-7-7-7---------
E]-------------------------------------------------



e]-------------------------------------------------------------------
B]-12-12-12-11-11-11-12-12-12-11-11-11-11-11-11-11-------------------
G]-11-11-11-11-11-11-11-11-11-11-11-11-11-11-11-11------------------- 4x
D]-------------------------------------------------------------------
A]-------------------------------------------------------------------
E]-------------------------------------------------------------------
 

 e]------------------------------------------------------------------
B]-14-14-14-12-12-12-14-14-14-12-12-12-12-12-12-12------------------
G]-11-11-11-11-11-11-11-11-11-11-11-11-11-11-11-11------------------ 2x
D]------------------------------------------------------------------
A]------------------------------------------------------------------
E]------------------------------------------------------------------


e]-------------------------------------------------------------------
B]-12-12-12-11-11-11-12-12-12-11-11-11-11-11-11-11------------------
G]-11-11-11-11-11-11-11-11-11-11-11-11-11-11-11-11------------------- 2x
D]-------------------------------------------------------------------
A]-------------------------------------------------------------------
E]-------------------------------------------------------------------


e]-------------------------
B]------------------------
G]----4--------------11--
D]------------------------
A]--------------11------
E]------------------------

e]----------------------------
B]---------------------------
G]----11------------11----- 6x
D]-9-------------9----------
A]------------11------------
E]---------------------------


e]-------------------------------------------------
B]-------------------------------------------------
G]-------------------------------------------------
D]-11-11-11-11-11-11-11-11-----9-9-9-9-9-9---------
A]--9-9--9--9---9--9--9--9-----7-7-7-7-7-7---------
E]-------------------------------------------------


e]-------------------------------------------------------------------
B]-12-12-12-11-11-11-12-12-12-11-11-11-11-11-11-11-------------------
G]-11-11-11-11-11-11-11-11-11-11-11-11-11-11-11-11------------------- 4x
D]-------------------------------------------------------------------
A]-------------------------------------------------------------------
E]-------------------------------------------------------------------
 

e]------------------------------------------------------------------
B]-14-14-14-12-12-12-14-14-14-12-12-12-12-12-12-12------------------
G]-11-11-11-11-11-11-11-11-11-11-11-11-11-11-11-11------------------  2x
D]------------------------------------------------------------------
A]------------------------------------------------------------------
E]------------------------------------------------------------------


e]-------------------------------------------------------------------
B]-12-12-12-11-11-11-12-12-12-11-11-11-11-11-11-11------------------
G]-11-11-11-11-11-11-11-11-11-11-11-11-11-11-11-11------------------- 2x
D]-------------------------------------------------------------------
A]-------------------------------------------------------------------
E]-------------------------------------------------------------------

e]-----------------------------------------------
B]-----------------------------------------------
G]----------------------------------------------- 2x
D]-4~6---6-6-6-6-6---4~6---6-6-6-6-6-6-6---------
A]-----------------------------------------------
E]-----------------------------------------------

e]--------------------------------------------------------------------------------------------------
B]--------------------------------------------------------------------------------------------------
G]---------------4---4---6-4---6~6~6~~--4----7--7--7-7-7-9---9-9-9-9-9-9-9---11---11-11------------
D]-4~6--6-6-6---6-----------------------------------------------------------------------------------
A]--------------------------------------------------------------------------------------------------
E]--------------------------------------------------------------------------------------------------

------------------------------------------------------------------------------------------------
-------------------------------------------------------------------------------------------------
-11-11-12---12-12-12-12-11-9--11--11--11-9-9-7--7-7-7-7-7-7-7--5/7-7-7-7-7-7-7-7-----------------
-------------------------------------------------------------------------------------------------
-------------------------------------------------------------------------------------------------
-------------------------------------------------------------------------------------------------

--------------------------------------------------------------------------------------------------
--------------------------------------------------------------------------------------------------
--5-5-5-5-5-5-5---7-7-7-7-7-7-7----5-5-5---x-x-x-x------------------------------------------------
-------------------------------------------x-x-x-x-----------------------------------------------
--------------------------------------------------------------------------------------------------
--------------------------------------------------------------------------------------------------


e]-------------------------------------------------------------------
B]-12-12-12-11-11-11-12-12-12-11-11-11-11-11-11-11-------------------
G]-11-11-11-11-11-11-11-11-11-11-11-11-11-11-11-11------------------- 4x
D]-------------------------------------------------------------------
A]-------------------------------------------------------------------
E]-------------------------------------------------------------------


e]------------------------------------------------------------------
B]-14-14-14-12-12-12-14-14-14-12-12-12-12-12-12-12-------------------
G]-11-11-11-11-11-11-11-11-11-11-11-11-11-11-11-11------------------ 2x
D]------------------------------------------------------------------
A]------------------------------------------------------------------
E]------------------------------------------------------------------


e]-------------------------------------------------------------------
B]-12-12-12-11-11-11-12-12-12-11-11-11-11-11-11-11-------------------
G]-11-11-11-11-11-11-11-11-11-11-11-11-11-11-11-11------------------- 2x
D]----------------------------------------------------------------4--
A]----------------------------------------------------------------2--
E]-------------------------------------------------------------------

aqui na ultima parte so bate nas cordas uma vez onde esta a casa 4 e 2 que é pra finalizar a musica...
é so pega o ritmo q vocês logo decoram ela , esta musica é bem facil....
Composição de Ricardo Galano
Colaboración y revision:
  • tarly wengrat
33 reproducciones
    • ½ Tono
    • A
    • Bb
    • B
    • C
    • Db
    • D
    • Eb
    • E
    • F
    • F#
    • G
    • Ab
  • Adicionar à lista

    0 comentarios

    Ver todos os comentários

    ¿Conseguiste tocar?

    1 Tocaram 0 Ainda não

    Grave um vídeo tocando Dias Atrás e nos envie!

    00:00 / 00:00
    outros vídeos desta música
    repetir qualidade Automático
    Outros vídeos desta música
    00:00 / 00:00
    Automático
    Capítulos
    • Tocando a música
    • Apresentação / Equipamentos
    • Acordes Introdução (guitarra base)
    • Tocando Introdução
    • Riff da Introdução
    • Base da introdução
    • Riff - Sugestão 1
    • Riff - Sugestão 2
    • Riff - Sugestão 3
    • Acordes Primeira parte (guitarra base)
    • Tocando Primeira parte
    • Padrão das estrofes
    • Riff Primeira parte
    • Dicas do refrão
    • Tocando refrão
    • Ensinando refrão (base)
    • Riff do Refrão
    • Dicas da repetição
    • Tocando Segunda parte - Solo
    • Solo - Parte 1 de 4
    • Solo - Parte 2 de 4
    • Solo - Parte 3 de 4
    • Solo - Parte 4 de 4
    • Solo completo
    • Encerramento
    OK