Cifra Club

Aprenda

Melancolia

CPM 22

Tablatura: Principal (guitarra)
tono: A
Intro: (Base) A D F#m E   2x

                      (Solo 2x)
E |----------------------------------------------
B |-5-5-5-5-5-5-9-9------------------------------
G |----------------------------------------------
D |-2-2-2-2-2-2-6-6------------------------------
A |----------------------------------------------
E |----------------------------------------------
bateria e guitarra...
riff: 01
E |--------------------------------------------------------------------
B |--------------------------------------------------------------------
G |--------------------------------------------------------------------
D |---7-6----7-6----7-6--7-6----7-6-----------7-6---7-6--7-6---7-6-----
A |------7------7------7----7-------7--7/9/7------7----------7-----7---
E |--------------------------------------------------------------------

A       D   F#m            E
Não há nada     que  me faça esquecer
A       D   F#m         E
Da desgraça     que você me fez viver
 A      D   F#m         E
Não há nada    que me faça esquecer
A         D  F#m        E
Dos meus dias    esperando por você

riff:02
E |------------
B |-7/9-9-9----
G |------------
D |-4/6-6-6---- (varias vezes a partir de ... esperando ...)
A |------------
E |------------

Pré refrão
D
Tudo o que passamos juntos        /
F#m                 E
Você nem sempre deu valor         /
D                             E
E agora não adianta vir me dizer  /
Que nem sempre foi assim

Refrão
A          D             F#m
Foi bem melhor  te esquecer
           E              A
Não posso mais esperar você
            D            F#m
Foi bem melhor te esquecer
           E
Não me procure mais

   solo:(A D F#m E)
E |------------------------------------------------------------------------------------------------------------------
B |------------------------------------------------------------------------------------------------------------------
G |------------------------------------------------------------------------------------------------------------------
D |----6H7-6--------------------------------------------------7-6----------------------------------------------------
A |----------7---7-7H9-7---7-7H9-7-5-5H7-5-5H7-5-5H7-5-5H7--7-----7---5-5H7-5-5-5H7-5--4-4H5--4-4H5--4--2--2H4-------
E |------------------------------------------------------------------------------------------------------------------

(A,D,F#m,E)
Não há nada que me faça entender
As palavras que eu ouvi você dizer
Não há nada que me faça entender
Dos meus dias esperando por você

riff:02
E |------------
B |-7/9-9-9----
G |------------
D |-4/6-6-6---- (varias vezes a partir de ... esperando ...)
A |------------
E |------------

(A,D,F#m,E)
Tudo o que passamos juntos
Você nem sempre deu valor
E agora não adianta vir me dizer
Que nem sempre foi assim

(A,D,F#m,E)
Foi bem melhor te esquecer
Não posso mais esperar você
Foi bem melhor te esquecer
Não me procure (nunca mais)

E |-----------------------------------------------------------------------------------
B |-7-7-7-7-7-7-7-9-9-9-9-9-9-9-9-12-12-12-12-12-12-12-12-14-14-14-14-14-14-14-14-----
G |-----------------------------------------------------------------------------------
D |-4-4-4-4-4-4-4-6-6-6-6-6-6-6-6-9--9--9--9--9--9--9--9--11-11-11-11-11-11-11-11-----
A |-----------------------------------------------------------------------------------
E |-----------------------------------------------------------------------------------

E |-----------------------------------------------------------------------------------
B |-15-15-15-15-15-15-15-15-17-17-17-17-17-17-17-17-15-15-15-14-14-14-12-12-12-9-7----
G |-----------------------------------------------------------------------------------
D |-12-12-12-12-12-12-12-12-14-14-14-14-14-14-14-14-12-12-12-11-11-11-9--9--9--6-4----
A |-----------------------------------------------------------------------------------
E |-----------------------------------------------------------------------------------

E |----------
B |----------
G |----------
D |---7-6----
A |------7... (deixar soar)
E |----------
Composição de Badauí / Gianfranco Portogallo / Paulo Anhaia
Colaboración y revision:
  • Tiago Teruya
  • Júlio Macedo
75 reproducciones
    • ½ Tono
    • A
    • Bb
    • B
    • C
    • Db
    • D
    • Eb
    • E
    • F
    • F#
    • G
    • Ab
  • Adicionar à lista

    0 comentarios

    Ver todos os comentários

    ¿Conseguiste tocar?

    2 Tocaram 0 Ainda não

    Grave um vídeo tocando Melancolia e nos envie!

    00:00 / 00:00
    outros vídeos desta música
    repetir qualidade Automático
    Outros vídeos desta música
    00:00 / 00:00
    Automático
    OK