Cifra Club

Aprenda

Mentiras Novas

CPM 22

Tablatura: Principal (guitarra)
tono: C
Intro
Base - G5, E5
Solo-
|-------------------------------------------------------------------------|
|-5--3/5/3---5--3/5/3---5--3/5/3--5--3/5/3--------------------------------|
|-------------------------------------------5/4-2-4-0-0-0-5/4-2-4--0-0-0-|
|-------------------------------------------------------------------------|
|-------------------------------------------------------------------------|
|-------------------------------------------------------------------------|

|---------------------------------------------------------------------|
|-5--3/5/3---5--3/5/3---5--3/5/3--5--3/5/3----------------------------|
|-------------------------------------------5/4-2-4--0--5/4-2-4--15~--|
|---------------------------------------------------------------------|
|---------------------------------------------------------------------|
|---------------------------------------------------------------------|
Riff 1
   repete 4x

  G5   E5      E5   C5 
|------------|----------|
|------------|----------|
|------------|------5---|
|-5-5--2-2-2-|--2---5---|
|-5-5--2-2-2-|--2---3---|
|-3-3--0-0-0-|--0-------|

riff 1
G5                                      C5
 Um dia tão louco, pessoas erradas, as horas passavam
    G5                                       C5
As coisas sempre aconteciam de um jeito inevitável

     G5          C5                   F5
Me parece que um tempo atrai a verdade 
     G5          D5   F5
Sensações de um mundo 
          C5
Triste e real

          G5   D5              F5                       C5
Mentiras novas, histórias de velhas pessoas, que querem te derrubar

( E5 C5 G5 bend em F#5 ) 
Ainda somos os mesmos, ooo

Repete riff 1

G5           D5                F5            C5
Novos amigos, falsas promessas,  vozes que não tem mais valor

( E5 C5 G5 bend em F#5 )*
Ainda somos os mesmos, ooo

*(repete só os acordes e a vocalização "ooo")

Solo Final
    Dm             F7+
e|--1-1---1--------0-0---0-------|\
B|--3-3-----3------1-1-----1-----| \
G|--2-2-------2----2-2-------2---|  \
D|--0-0---------0--3-3---------3-|  /até o final da música
A|-------------------------------| /
E|-------------------------------|/

ahh... e no finalzinho parece q tem alguem q fala bem baixinho:"Esperança!..."
Composição de Wally
Colaboración y revision:
  • igor falcão
  • Igor Falcão
16 reproducciones
    • ½ Tono
    • A
    • Bb
    • B
    • C
    • Db
    • D
    • Eb
    • E
    • F
    • F#
    • G
    • Ab
  • Adicionar à lista

    0 comentarios

    Ver todos os comentários

    ¿Conseguiste tocar?

    0 Tocaram 0 Ainda não

    Grave um vídeo tocando Mentiras Novas e nos envie!

    00:00 / 00:00
    outros vídeos desta música
    repetir qualidade Automático
    Outros vídeos desta música
    00:00 / 00:00
    Automático
    OK