Cifra Club

Aprenda

Mentiras Novas

CPM 22

Tab de bajo: Principal
Introdução e Verso:

G -----------------------------------------
D -----------------------------------------
A -----------------------------------------  4x
E –3-3-3-3-3-3-3-3-3-3-0-0-0-0-0-0-0-0-0-0-

1o Refrão:

G ------------------------------------------------------------------- 
D -------------------------------------------------------------------
A -----------------------------3-3-3-3-3-3-3-------------------------
E –3-3-3-3-3-3-3-1-1-1-1-1-1-1---------------1-1-1-1-1-1-3-3-3-3-3-3-

Cont.

G -------------------------------------------
D -------------------------------------------
A –5-5-5-5-5-5-5---------------3-3-3-3-3-3-3-  1x
E ---------------1-1-1-1-1-1-1---------------

2o Refrão:

G ---------------------------------------------------------
D ---------------------------------------------------------
A ---------------5-5-5-5-5-5-5---------------3-3-3-3-3-3-3-  1x
E -3-3-3-3-3-3-3---------------1-1-1-1-1-1-1---------------

Ponte:

G -----------------------------------------------
D -----------------------------------------------
A ---------------3-3-3-3-3-3-3-------------------  1x
E –0-0-0-0-0-0-0---------------3-3-3-3-3-3-3--2^-

Cont.

G -------------------------------------------
D -------------------------------------------
A ---------------3-3-3-3-3-3-3---------------  2x
E –0-0-0-0-0-0-0---------------3-3-3-3-3-3-3-




_______________________________________________________
Contribuição: Gustavo Machanoker(gutti_machanoker@mtv.com.br)
Composição de Wally
12 reproducciones

0 comentarios

Ver todos os comentários

¿Conseguiste tocar?

0 Tocaram 0 Ainda não

Grave um vídeo tocando Mentiras Novas e nos envie!

00:00 / 00:00
outros vídeos desta música
repetir qualidade Automático
Outros vídeos desta música
00:00 / 00:00
Automático
OK