Cifra Club

Aprenda

Não vá embora

CPM 22

Tablatura: Principal (guitarra)
tono: B
Daew galeraa passei pra dar uma melhorada na musicaa...
Tocando em quinta as notas a musica fica mais faceell...
t+ by Zehh
Intro: G#5 B5 F#5 Em G#5 F#5
Solo Intro:
e||------------------------------------------------------------------------||
B||------------------------------------------------------------------------||
G||--3--------3------3------3---------3/4-------3/4------------------------||  (2x)
D||----1-4-1----1-4-1--1-4-1---1-4-1------1-4-1-----1-4/5-4~--6/7~^-7-6-4--||
A||------------------------------------------------------------------------||
E||------------------------------------------------------------------------||
(solo por thiago_guitarrista)


Riff 1: G#5 B5 F#5 (abafando)
Só mais uma vez
De novo talvez
Te ver acordar
Nem que seja pela ultima vez


Pré-Refrão: Em G#5 Em B5
Tantas coisas que eu quero
(Falar pra você)
Mas jamais consegui
Por que?

Refrão: G#5 Em B5
Não vá embora
(Fique, por favor)
Não vá agora.
(Esqueça o que ficou)
Pra trás há horas
(Quem nunca te amou)

Yeahhh!

Intro: G#5 B5 F#5 Em G#5 F#5
Solo Intro:
e||------------------------------------------------------------------------||
B||------------------------------------------------------------------------||
G||--3--------3------3------3---------3/4-------3/4------------------------||  (2x)
D||----1-4-1----1-4-1--1-4-1---1-4-1------1-4-1-----1-4/5-4~--6/7~^-7-6-4--||
A||------------------------------------------------------------------------||
E||------------------------------------------------------------------------||
(solo por thiago_guitarrista)


Riff 2: G#5 B5 F#5 (abafando)
Seu telefone tocou
Procura alguém
Com quem possa falar
Nem que seja pela ultima vez

Pré-Refrão: Em G#5 Em B5
Tantas coisas que eu quero
(Falar pra você)
Mas jamais consegui
Por que?

Refrão: G#5 Em B5
Não vá embora
(Fique, por favor)
Não vá agora.
(Esqueça o que ficou)
Pra trás há horas
(Quem nunca te amou)

Final: G#5 Em B5


o X antes do bend significa que deve se fazer o Bend e tocar.
fazer o bend na casa 10 mais sem tocar.

Solo Final 3x:
 | 3x e depois da casa 10 ir para a 7 |
e|--xb11-11-11-11-11r10--|-7----------|
B|-----------------------|------------|
G|-----------------------|------------|
D|-----------------------|------------|
A|-----------------------|------------|
E|-----------------------|------------|
Composição de Wally
Colaboración y revision:
  • José Parrales
  • Thiago Fernandes
  • Carlos Silva
695 reproducciones
    • ½ Tono
    • A
    • Bb
    • B
    • C
    • Db
    • D
    • Eb
    • E
    • F
    • F#
    • G
    • Ab
  • Adicionar à lista

    0 comentarios

    Ver todos os comentários

    ¿Conseguiste tocar?

    11 Tocaram 0 Ainda não

    Grave um vídeo tocando Não vá embora e nos envie!

    00:00 / 00:00
    outros vídeos desta música
    repetir qualidade Automático
    Outros vídeos desta música
    00:00 / 00:00
    Automático
    OK