Cifra Club

Regina Let's Go!

CPM 22

Cifrado: Principal (guitarra y guitarra eléctrica)
tono: D
[Intro] D5  A5  E5  G5

E|-------------------------------------------------|
B|-------------------------------------------------|
G|-7-7-7-7-7-----------9-9-9-9-9-------------------| (2x)
D|-7-7-7-7-7-7-7-7-7-7-9-9-9-9-95-5-5-5-5-5--------|
A|-5-5-5-5-5-7-7-7-7-7-7-7-7-7-75-5-5-5-5-5--------|
E|-----------5-5-5-5-5----------3-3-3-3-3-3--------|

E|-----------------------------------|
B|-----------------------------------|
G|--7--12--11--7--12--11--12--11--7--|
D|-----------------------------------| (4x)
A|--5--10--9---5--10--9---10--9---5--|
E|-----------------------------------|

D5                     A5                        E5
 Em muitas vezes procurei tentar achar onde eu errei
                  G5
Em coisas que nem têm porque
D5                    A5                        E5
 Naquela vez te perguntei  você não soube responder
               G5          D5
O que eu tinha feito pra você

    A5                 E5
Agora como eu vou saber             
        G5                     D5 
Tem hora que é melhor esquecer      
      A5               E5          
Espera o dia amanhecer             
    G5                      D5      
Pra ver o que a gente vai fazer

E|-----------------------------------|
B|-----------------------------------|
G|--7--12--11--7--12--11--12--11--7--|
D|-----------------------------------| (4x)
A|--5--10--9---5--10--9---10--9---5--|
E|-----------------------------------|

D5                A5                E5
 Não me importa mais não ter como voltar
              G5           D5
É  eu não vou mais me importar
                 A5            E5
Qualquer coisa faz sua idéia mudar
              G5           D5
A gente ainda pode se entender

[Solo] 

E|------------------------------------------------------------------|
B|------------------------------------------------------------------|
G|------------------------------------------------------------------|
D|------------------------------------------------------------------|
A|------------------------------------------------------------------|

E|-----------------------------------|
B|-----------------------------------|
G|-----------------------------------|
D|-----------------------------------|
A|-12r0--10r0--9r0--12r0--10r0--9r0--|
E|-----------------------------------|

E|--------------------------------|
B|--------------------------------|
G|--------------------------------|
D|--------------------------------|
A|--7r0--9r0--7r0--7r0--9r0--7r0--|
E|--------------------------------|

E|------------------------------------------------------------------|
B|------------------------------------------------------------------|
G|------------------------------------------------------------------|
D|------------------------------------------------------------------|
A|--5r0--10r0--9r0--5r0--10r0--9r0--5r0--10r0--9r0--5r0--10r0--9r0--|
E|------------------------------------------------------------------|

E|----------------------------------------|
B|----------------------------------------|
G|----------------------------------------|
D|----------------------------------------|
A|--12--12--12--12--12--12--10--9--10-----|
E|----------------------------------------|

E|-----------------------------------------|
B|-----------------------------------------|
G|-----------------------------------------|
D|-----------------------------------------|
A|--12--12--12--12--12--12--10--9--10--5~--|
E|-----------------------------------------|

D5                     A5
 Em muitas vezes eu pensei em tentar falar o que eu nem
E5                       G5
Sei de coisas que eu já quis saber
D5                    A5                        E5
 Naquela vez te perguntei  você não soube responder
               G5          D5
O que eu tinha feito pra você

    A5                 E5
Agora como eu vou saber                        
        G5                     D5              
Tem hora que é melhor esquecer                 
      A5               E5                    
Espera o dia amanhecer                        
    G5                      D5                 
Pra ver o que a gente vai fazer

E|-----------------------------------|
B|-----------------------------------|
G|--7--12--11--7--12--11--12--11--7--|
D|-----------------------------------| (4x)
A|--5--10--9---5--10--9---10--9---5--|
E|-----------------------------------|

D5                 A5                E5
 Não me importa mais não ter como voltar
              G5           D5
É  eu não vou mais me importar
                  A5            E5
Qualquer coisa faz sua idéia mudar
                 G5                  D5  A5
Quem sabe a gente pode se entender

E|---------------------------------------------------------|
B|---------------------------------------------------------|
G|--7--9--11--12--11--9--7--------14--14--12--12--11-11-12-|
D|---------------------------------------------------------|
A|--5--7--9---10--9---7--5--------12--12--10--10--9--9--10-|
E|---------------------------------------------------------|

E|-------------------------------|
B|-------------------------------|
G|--7--9--11--12--11--9-------7--|
D|-------------------------------|
A|--5--7--9---10--9---7-------5--|
E|-------------------------------|

E5               G5      D5     A5 E5
Daqui a pouco é tarde demais
    G5                  D5
Mas isso é entre eu e você
Composición de Badauí / Gianfranco Portogallo
1.785 vistas
    • ½ Tono
    • A
    • Bb
    • B
    • C
    • Db
    • D
    • Eb
    • E
    • F
    • F#
    • G
    • Ab
  • Agregar a la lista

    0 comentarios

    Ver todos los comentarios

    ¿Lograste tocar?

    33 Tocaron 0 Aún no

    ¡Graba un video tocando Regina Let's Go! y envíanoslo!

    00:00 / 00:00
    Outros vídeos desta música
    Repetir Calidad Automático
    Outros vídeos desta música
    00:00 / 00:00
    Automático
    OK