Cifra Club

Aprenda

Tarde de Outubro

CPM 22

Tablatura: Principal (guitarra)
tono: F#
Intro 
E|-----------------------------------------------------------------------------------|
B|-----------------------------------------------------------------------------------|
G|--2h4-4-4-4-4-4-4-4-4-4------------------------------------------------------------|
D|--2h4-4-4-4-4-4-4-4-4-4-7-7-7-7-7-7-7-7-7-7-6-6-6-6-6-6-6-6-6-6-4-4-4-4-4-4-4-4-4-4|
A|--0h2-2-2-2-2-2-2-2-2-2-7-7-7-7-7-7-7-7-7-7-6-6-6-6-6-6-6-6-6-6-4-4-4-4-4-4-4-4-4-4|
E|------------------------5-5-5-5-5-5-5-5-5-5-4-4-4-4-4-4-4-4-4-4-2-2-2-2-2-2-2-2-2-2| |Guitarra 1

E|-------------------------------------------------------------------|
B|-------------------------------------------------------------------|
G|-4---4---4---4---4---4---4---4---4---4---4---4---4---4---4---4---4-|
D|---4---4---4---4---4---4---4---4---4---4---4---4---4---4---4---4---|
A|-------------------------------------------------------------------|
E|-------------------------------------------------------------------|
  Guitarra 2 (entra na segunda vez, e é com palm mute)

Verso
E|-----------------------------------------------------------------------------------|
B|-----------------------------------------------------------------------------------|
G|--2h4-4-4-4-4-4-4-4-4-4------------------------------------------------------------|
D|--2h4-4-4-4-4-4-4-4-4-4-7-7-7-7-7-7-7-7-7-7-6-6-6-6-6-6-6-6-6-6-4-4-4-4-4-4-4-4-4-4|
A|--0h2-2-2-2-2-2-2-2-2-2-7-7-7-7-7-7-7-7-7-7-6-6-6-6-6-6-6-6-6-6-4-4-4-4-4-4-4-4-4-4|
E|------------------------5-5-5-5-5-5-5-5-5-5-4-4-4-4-4-4-4-4-4-4-2-2-2-2-2-2-2-2-2-2|

Riff (durante verso)
E|--------------------------------------|
B|--------------------------------------|
G|--4/6/4---8-8-8-8-8-11-11-11-11-11-11-|
D|--------------------------------------|
A|--2/4/2---6-6-6-6-6-9--9--9--9--9--9--|
E|--------------------------------------|
  

Refrão (2 vezes)
E|-----------------------------------------------------------------------------------|
B|-----------------------------------------------------------------------------------|
G|--2h4-4-4-4-4-4-4-4-4-4------------------------------------------------------------|
D|--2h4-4-4-4-4-4-4-4-4-4-7-7-7-7-7-7-7-7-7-7-6-6-6-6-6-6-6-6-6-6-4-4-4-4-4-4-4-4-4-4|
A|--0h2-2-2-2-2-2-2-2-2-2-7-7-7-7-7-7-7-7-7-7-6-6-6-6-6-6-6-6-6-6-4-4-4-4-4-4-4-4-4-4|
E|------------------------5-5-5-5-5-5-5-5-5-5-4-4-4-4-4-4-4-4-4-4-2-2-2-2-2-2-2-2-2-2|
Guitarra 1
 |
E|-------------------------------------------------------------------------|
B|-12--12--12--12--12--12--12--12--12--12--12--12-12-12--------------------|
G|-------------------------------------------------------11-11-11-14-14-14-|
D|-9---9---9---9---9---9---9---9---9---9---9---9--9--9---------------------|
A|-------------------------------------------------------9--9--9--12-12-12-|
E|-------------------------------------------------------------------------|
  Guitarra 2

Riff após refrão (2 vezes, com a base do verso)
E|-------------------------------------------------------------------------------------
B|-------------------------------------------------------------------------------------
G|-4-4-4-4-4-4-4 4/8-8-8-8-8-8-8-8-9-8-9-9-8-9-9-8-9-9-8-11-11-11-11-11-9-9-9-11-11-9-9
D|-------------------------------------------------------------------------------------
A|-2-2-2-2-2-2-2 2/6-6-6-6-6-6-6-6-7-6-7-7-6-7-7-6-7-7-6-9--9--9--9--9--7-7-7-9--9--7-7
E|-------------------------------------------------------------------------------------

Final
E|-----------------------------------------------------------------|
B|-----------------------------------------------------------------|
G|---------------------6-6-6-6-6-----------6-6-6-6-6-----------4-4-|
D|-4-4-4-4-4-7-7-7-7-7-6-6-6-6-6-7-7-7-7-7-6-6-6-6-6-7-7-7-7-7-4-4-|
A|-4-4-4-4-4-7-7-7-7-7-4-4-4-4-4-7-7-7-7-7-4-4-4-4-4-7-7-7-7-7-2-2-|
E|-2-2-2-2-2-5-5-5-5-5-----------5-5-5-5-5-----------5-5-5-5-5-----|


B5                           A5
Peguei minhas coisas, fui embora 
                   G#5
Não queria mais voltar 
                      F#5
Eu nunca quis presenciar o fim 
B5                   A5
Há dias que os dias passam devagar
         G#5        F#5
Tudo se foi, Nada restou pra mim 
B5                    A5
Por isso estou aqui agora  
                  G#5                      F#5
Vou embora sem pensar, No que ficou pra começar ali 
B5                          A5  
Mas eu só tinha algumas horas pra voltar 
         G#5         F#5 
Tudo se foi, Nada restou pra mim 

=== REFRÃO ===

B5           G#5          A5            B5
São coisas que somente o tempo irá curar 
       F#5          A5              B5
Se foi para nunca mais te ver chorar 
           G#5          A5             B5
São coisas que somente o tempo irá curar 
        F#5       A5 
Se foi, tudo vai passar

Solo:B5 A5 G#5 F#5

B5                                      A5
Peguei minhas coisas, (peguei minhas coisas)
                   G#5
Não queria mais voltar 
                      F#5
Eu nunca quis presenciar o fim 
B5                   A5
Há dias que os dias passam devagar
         G#5        F#5
Tudo se foi, Nada restou pra mim 

=== REFRÃO ===

B5         G#m          A5            B5
São coisas que somente o tempo irá curar 
       F#5         A5              B5
Se foi para nunca mais te ver chorar 
           G#5        A5             B5
São coisas que somente o tempo irá curar 
        F#5       A5 
Se foi, tudo vai passar

C#5       A5     C#5       A5     B5
Tudo vai passar, Tudo vai passar
Composição de Gianfranco Portogallo
2.203 reproducciones
    • ½ Tono
    • A
    • Bb
    • B
    • C
    • Db
    • D
    • Eb
    • E
    • F
    • F#
    • G
    • Ab
  • Adicionar à lista

    0 comentarios

    Ver todos os comentários

    ¿Conseguiste tocar?

    26 Tocaram 2 Ainda não

    Grave um vídeo tocando Tarde de Outubro e nos envie!

    00:00 / 00:00
    outros vídeos desta música
    repetir qualidade Automático
    Outros vídeos desta música
    00:00 / 00:00
    Automático
    OK