Cifra Club

Vida Ou Morte

CPM 22

Cifrado: Principal (guitarra y guitarra eléctrica)
tono: C
C                   Dm
Fiz uma reserva, no ônibus das três
Em
Quem sabe ele leva ?
      Dm
Quem sabe nos conduz pra luz ?
       C                       Dm
Eu pensei, em uma nova era, um novo amanhecer
Em                    Dm
Com novas idéias, com novas atitudes vamos vencer

( C  G  F ) (2x) - [violão Base]

Solo

E|-------------------------------------------------|
B|-------------------------------------------------|
G|-------------------------------------------------|     
D|---------2--0--5~----2^3^2------2^3^2------------|
A|--3--5----------------------3----------3--5~-----|
E|-------------------------------------------------|

E|-------------------------------------------------|
B|-------------------------------------------------|
G|-------------------------------------------------|     
D|-----2^3^2-------5~------2^3^2------2^3^2--------|
A|--3---------3-------------------3----------3-----|
E|-------------------------------------------------|

**[^ - hammer e pull off]**

C                   Dm
Propostas modernas,superação em mente
Em                   Dm                            C
Batidas concretas, e a velha identidade só pra manter
                     Dm                  Em
Sem medo vamos prosseguir, agora é pra valer
                      Dm
Estamos em guerra, em mais uma missão de vida ou morte

C5      G5       F5
Desejo sorte para todos nós

Vamos vencer !
C5        G5      F5
É vida ou morte outra vez

Vamos vencer !
C        G        F
Prosperidade hoje e sempre

Vamos vencer !
C5      G5        F5
Desejo sorte para todos nós

Vamos vencer !

G
Nossas conquistas na parede do bar
Am
Nos anunciam, nos põem no lugar
      F
Não vá pensando que estamos mortos

Pode escrever
Fm           Fm  (só passa nessa hora)
Já se prepara, vamos vencer

( C   Dm   Em   F )

C                      Dm
Fiz uma promessa, só contarei depois
Em                        Dm
Que a noite adormeça, e o sol venha nos aquecer
        C                  Dm
com seu poderoso raio da manhã
                    E5
Mas não vamos esquecer
                      D5
Estamos em guerra em mais uma missão

de vida ou morte

C5      G5         F5
Desejo sorte para todos nós

Vamos vencer !
C5        G5          F5
É vida ou morte outra vez

Vamos vencer !
C       G          F
Prosperidade hoje e sempre
C       G         F
Desejo sorte para todos nós

Vamos vencer !

C                  Dm
Fiz uma reserva no ônibus das três...

----------------- Acordes -----------------
Am = X 0 2 2 1 0
C = X 3 2 0 1 0
C5 = X 3 5 5 X X
D5 = X 5 7 7 X X
Dm = X X 0 2 3 1
E5 = 0 2 2 X X X
Em = 0 2 2 0 0 0
F = 1 3 3 2 1 1
F5 = 1 3 3 X X X
Fm = 1 3 3 1 1 1
G = 3 2 0 0 0 3
G5 = 3 5 5 X X X
Composición de Luciano / Luciano Garcia
273 vistas
    • ½ Tono
    • A
    • Bb
    • B
    • C
    • Db
    • D
    • Eb
    • E
    • F
    • F#
    • G
    • Ab
  • Agregar a la lista

    0 comentarios

    Ver todos los comentarios

    ¿Lograste tocar?

    36 Tocaron 1 Aún no

    ¡Graba un video tocando Vida Ou Morte y envíanoslo!

    00:00 / 00:00
    Outros vídeos desta música
    Repetir Calidad Automático
    Outros vídeos desta música
    00:00 / 00:00
    Automático
    OK