Cifra Club

Queen Obscene

Crashdiet

Cifrado: Principal (guitarra y guitarra eléctrica)
Selo Cifra Club: esta cifra foi revisada para atender aos critérios oficiais da nossa Equipe de Qualidade.
tono: B
Guitar 1(lead)
E|----------------------------|
B|---7~~-7--7--7---9-10-------|
G|----------------------------|
D|----------------------------|
A|----------------------------|
E|----------------------------|
Guitar 2(rythm)
E|----------------------------|
B|----------------------------|
G|----------------------------|
D|---4*-----------------------|
A|---4*-----------------------|
E|---2*-----------------------|

Guitar 1
E|--------------------------------------------------------|
B|---7~~-7--7--7---9-10---7~~-----12^-(12)-10^-9-10-9-----|
G|--------------------------------------------------------|
D|--------------------------------------------------------|
A|--------------------------------------------------------|
E|--------------------------------------------------------|
Guitar 2
E|--------------------------------------------------------|
B|--------------------------------------------------------|
G|---7*-------------------9*------------------------------|
D|---7*-------------------9*------------------------------|
A|---5*-------------------7*-------2-0----2-0-----4-------|
E|-------------------------------------2------2-----------|

Guitar 1
E|-------------------------------------------------------------|
B|---7~~-7--7--7---9-10---7~~-7--7--7---9-10------12^----15^^--|
G|-------------------------------------------------------------|
D|-------------------------------------------------------------|
A|-------------------------------------------------------------|
E|-------------------------------------------------------------|
Guitar 2
E|--------------------------------------------------------|
B|--------------------------------------------------------|
G|---7*--------------------------------------------9*-----|
D|---7*--------------------------------------------9*-----|
A|---5*--------------------------------------------7*-----|
E|--------------------------------------------------------|

Guitar 1&2
E|----------------------------|
B|----------------------------|
G|----7*----------------------|
D|----7*------------4---------|
A|----5*------------4---------|
E|------------------2---------|



* -let ring
~ -vibrato
^ -bend up
Otros videos de esta canción
22 exhibiciones
    • ½ Tono
    • A
    • Bb
    • B
    • C
    • Db
    • D
    • Eb
    • E
    • F
    • F#
    • G
    • Ab
  • Agregar a la lista

Afinación de cifrado

Afinador online

    OK