Cifra Club

Candy Coated

Crazy Town

Tab de bajo: Principal
Album	: Darkhorse
Tabs By	: cxtbboy

Intro

(x2)
G -----------------------------------------------------
D ------8*-------6-------------8h9p8-------------------
A -4/6-------------------------------------------------
E -------------6----6-7--7-7-7-------------------------
B -----------------------------------------------------

(x1)
G -----------------------------------------------------
D ------8*--------6*--------9-9*-----------------------
A -4/6---------4---------------------------------------
E -----------------------7---------8-8-7---------------
B ---------------------------------------8--4*---------

Verse 1

(x6)
G -----------------------------------------------------
D ------8---------6------------8h9p8-------------------
A -4/6----6-9*-----------------------------------------
E --------------6---6-7--7-7-7-------------------------
B -----------------------------------------------------

G -----------------------------------------------------
D ------8---------6------------------------------------
A -4/6----6-9*-----------------------------------------
E --------------6-----7*-------------------------------
B -----------------------------------------------------

Chorus

(x2)
G -----------------------------------------------------
D -----------------------------------------------------
A -----------------------------------------4-4-4-4-4/6-
E -------------------------2-2-2-2-2-2-2-2-------------
B -4-4---4-4---4-4---4-4-------------------------------

G -----------------------------------------------------
D ------8---------6------------8h9p8-------------------
A -4/6----6-9*-----------------------------------------
E --------------6---6-7--7-7-7-------------------------
B -----------------------------------------------------

Verse 2

(x6)
G -----------------------------------------------------
D ------8---------6------------8h9p8-------------------
A -4/6----6-9*-----------------------------------------
E --------------6---6-7--7-7-7-------------------------
B -----------------------------------------------------

G -----------------------------------------------------
D ------8---------6------------------------------------
A -4/6----6-9*-----------------------------------------
E --------------6-----7*-------------------------------
B -----------------------------------------------------

Chorus

(x2)
G -----------------------------------------------------
D -----------------------------------------------------
A -----------------------------------------4-4-4-4-4/6-
E -------------------------2-2-2-2-2-2-2-2-------------
B -4-4---4-4---4-4---4-4-------------------------------

G -----------------------------------------------------
D -----------------------------------------------------
A -----------------------------------------4-4-4-4-4/6-
E -------------------------2-2-2-2-2-2-2-2-------------
B -4-----4-----4-----4---------------------------------

G -----------------------------------------------------
D -----------------------------------------------------
A -----------------------------------------4-4-4-4-4/6-
E -------------------------2-2-2-2-2-2-2-2-------------
B -4-4---4-4---4-4---4-4-------------------------------

G -----------------------------------------------------
D ------8---------6------------8h9p8-------------------
A -4/6----6-9*-----------------------------------------
E --------------6---6-7--7-7-7-------------------------
B -----------------------------------------------------

Verse 3

(same as Intro)

Bridge

(x6)
G ----------
D ----------
A --6--4--2-
E ----------
B ----------

G ----------
D ----------
A --6--4----
E ----------
B --------0*

Chorus

G -----------------------------
D -----------------------------
A -----------------4-4-4-4-4/6-
E -2-2-2-2-2-2-2-2-------------
B -----------------------------

G -----------------------------------------------------
D -----------------------------------------------------
A -----------------------------------------4-4-4-4-4/6-
E -------------------------2-2-2-2-2-2-2-2-------------
B -4-4---4-4---4-4---4-4-------------------------------

G -----------------------------------------------------
D -----------------------------------------------------
A -----------------------------------------------------
E -----------------------------------------------------
B -4-----4-----4-----4---------------------------------

G -----------------------------------------------------
D -----------------------------------------------------
A -----------------------------------------4-4-4-4-4/6-
E -------------------------2-2-2-2-2-2-2-2-------------
B -4-4---4-4---4-4---4-4-------------------------------

* = let ring
Composición de Crazy Town
17 vistas

0 comentarios

Ver todos los comentarios

¿Lograste tocar?

0 Tocaron 0 Aún no

¡Graba un video tocando Candy Coated y envíanoslo!

00:00 / 00:00
Outros vídeos desta música
Repetir Calidad Automático
Outros vídeos desta música
00:00 / 00:00
Automático
OK