Cifra Club

Drowning

Crazy Town

Cifrado: Principal (guitarra y guitarra eléctrica)
tono: E
Afinaçao: Db, Ab, Db, Gb, Bb, Eb (um tom e meio atrás)
Legenda: PM = Palm Mute
         Fdbck = Feedback (Retorno, delay, eco)
         
Intro/Guitarra 1:
Eb|----------------------------------------------------|
Bb|----------------------------------------------------|
Gb|----------------------------------------------------|
Db|-5-5-555-5---0-0-000-0---10-10-10-10-10-10---5------|
Ab|-5-5-555-5---0-0-000-0---8--8--8--8--8--8----5------|
Db|-5-5-555-5---0-0-000-0---8--8--8--8--8--8----5------|
                                  |--PM--|
 
Intro/Guitarra 2:            fdbck
Eb|----------------------------------------------------|
Bb|--------------17---12--10--8h10--8h10-5-------------|
Gb|----------------------------------------------------|
Db|----------------------------------------------------|
Ab|----------------------------------------------------|
Db|----------------------------------------------------|

Versos:
Eb|--------------------------5--------5-------------------------3------|
Bb|----6h5-6h5-6h5-6h5----5h6--5h6-5h6------6h5-6h5-6h5-6h5--------6---|
Gb|--7------------------------------------7-------------------5--------|
Db|--------------------------------------------------------------------|
Ab|--------------------------------------------------------------------|
Db|--------------------------------------------------------------------|

Solo:
Eb|--------------------------------------------------------------------|
Bb|--------------------------------------------------------------------|
Gb|--------------------------------------------------------------------|
Db|-19--17--21--19--17h19-----19--17--15--14--10h12--------------------|
Ab|--------------------------------------------------------------------|
Db|--------------------------------------------------------------------|

Eb|--------------------------------------------------------------------|
Bb|--------------------------------------------------------------------|
Gb|--------------------------------------------------------------------|
Db|-0-0-0-0--15--0-0-0-0--14-19-12--0-0--15--0-0--14-------------------|
Ab|--------------------------------------------------------------------|
Db|--------------------------------------------------------------------|
    |-PM-|       |-PM-|            |-PM-|   |-PM-| 

Pronto.. é issae.. essa daí foi a nova música do crazytown, não é dificil não,
a coisa mais chata nela é criar esses efeitos que eles usam, tais como delay,
mas se você já tiver pronto beleza! Meta a palheta na corda e goze, falow =)


 
Composición de Crazy Town
54 vistas
    • ½ Tono
    • A
    • Bb
    • B
    • C
    • Db
    • D
    • Eb
    • E
    • F
    • F#
    • G
    • Ab
  • Agregar a la lista

    0 comentarios

    Ver todos los comentarios
    00:00 / 00:00
    Outros vídeos desta música
    Repetir Calidad Automático
    Outros vídeos desta música
    00:00 / 00:00
    Automático
    OK