Cifra Club

Hurt You So Bad

Crazy Town

Cifrado: Principal (guitarra y guitarra eléctrica)
tono: A
tuning= Db, Ab, Db, Gb, Bb, Eb. 
 
 
Key 
/= slide up/down 
*= harmonic 
Dist.= distortion 
 
 
intro guitar 1 Dist. (listen to song for exact amount of times each 
note being played) 
Eb -------------------------------------------------------- 
Bb -------------------------------------------------------- 
Gb -------------------------------------------------------- 
Db -4-4-4-4-4-4-4-3-3-3-3/7-7-7-7-7-0-0-0-0-0-0-3-3-3-3-3-3 
Ab -------------------------------------------------------- 
Db -------------------------------------------------------- 
 
Intro guitar 2 Dist. (listen to song for extact amount of times  
each cord is played) 
Eb ---------------------- 
Bb ---------------------- 
Gb -----3---5------------ 
Db -0---3---5---5---8---3 
Ab -0---1---3---5---8---3 
Db -0-----------5---8---3 
 
 
Verse 1 
Guitar 2 dist. (harmonic) (listen to song for where this harmonic  
is played) 
    * * * 
Eb -8----- 
Bb ---8--- 
Gb -----8- 
Db ------- 
Ab ------- 
Db ------- 
 
Guitar 2 Dist. (listen to song for exact amount of times each 
chord is played and how many times this riff is repeated) 
PM 
Eb ---------------------- 
Bb ---------------------- 
Gb -----3---5------------ 
Db -0---3---5---5---8---3 
Ab -0---1---3---5---8---3 
Db -0-----------5---8---3 
 
 
Chorus 
guitar 1 dist. (listen to song for exact amount of times each 
note being played) 
Eb -------------------------------------------------------- 
Bb -------------------------------------------------------- 
Gb -------------------------------------------------------- 
Db -4-4-4-4-4-4-4-3-3-3-3/7-7-7-7-7-0-0-0-0-0-0-3-3-3-3-3-3 
Ab -------------------------------------------------------- 
Db -------------------------------------------------------- 
 
 
Guitar 2 Dist. (listen to song for exact amount of times each 
chord is played and how many times this riff is repeated) 
Eb ---------------------- 
Bb ---------------------- 
Gb -----3---5------------ 
Db -0---3---5---5---8---3 
Ab -0---1---3---5---8---3 
Db -0-----------5---8---3 
 
 
Verse 2 
Guitar 1 dist. (harmonic) 
   * * * 
Eb -8----- 
Bb ---8--- 
Gb -----8- 
Db ------- 
Ab ------- 
Db ------- 
 
Guitar 2 dist. 
PM 
Eb ---------------------- 
Bb ---------------------- 
Gb -----3---5------------ 
Db -0---3---5---5---8---3 
Ab -0---1---3---5---8---3 
Db -0-----------5---8---3 
 
 
Chorus 
guitar 1 dist. (listen to song for exact amount of times each 
note being played) 
Eb -------------------------------------------------------- 
Bb -------------------------------------------------------- 
Gb -------------------------------------------------------- 
Db -4-4-4-4-4-4-4-3-3-3-3/7-7-7-7-7-0-0-0-0-0-0-3-3-3-3-3-3 
Ab -------------------------------------------------------- 
Db -------------------------------------------------------- 
 
 
Guitar 2 Dist. (listen to song for exact amount of times each 
chord is played and how many times this riff is repeated) 
Eb ---------------------- 
Bb ---------------------- 
Gb -----3---5------------ 
Db -0---3---5---5---8---3 
Ab -0---1---3---5---8---3 
Db -0-----------5---8---3 
 
 
Bridge 
Guitar 1 dist.  
guitar 1 is very hard to work out becuase its quiet and very high 
lead and its hard to work out so if anyone wants to add it or  
make a suggestion into how it goes please do 
 
 
Guitar 2 dist. 
Eb ---------------------- 
Bb ---------------------- 
Gb -----3---5------------ 
Db -0---3---5---5---8---3 
Ab -0---1---3---5---8---3 
Db -0-----------5---8---3 
 
 
Outro 
Guitar 1 dist. 
Eb -------------------------------------------------------- 
Bb -------------------------------------------------------- 
Gb -------------------------------------------------------- 
Db -4-4-4-4-4-4-4-3-3-3-3/7-7-7-7-7-0-0-0-0-0-0-3-3-3-3-3-3 
Ab -------------------------------------------------------- 
Db -------------------------------------------------------- 
 
Guitar 2 dist. 
Eb ---------------------- 
Bb ---------------------- 
Gb -----3---5------------ 
Db -0---3---5---5---8---3 
Ab -0---1---3---5---8---3 
Db -0-----------5---8---3 
 
Extra guitar that guitar 1 plays right at the end after guitar 2 has 
stopped playing and the fade out is about to happen about 11 seconds 
before the song finishes. 
 
Eb -15-11 -15-11 
Bb ------------- 
Gb ------------- 
Db ------------- 
Ab ------------- 
Db ------------- 
Composición de Crazy Town
55 vistas
    • ½ Tono
    • A
    • Bb
    • B
    • C
    • Db
    • D
    • Eb
    • E
    • F
    • F#
    • G
    • Ab
  • Agregar a la lista

    0 comentarios

    Ver todos los comentarios

    ¿Lograste tocar?

    0 Tocaron 0 Aún no

    ¡Graba un video tocando Hurt You So Bad y envíanoslo!

    00:00 / 00:00
    Outros vídeos desta música
    Repetir Calidad Automático
    Outros vídeos desta música
    00:00 / 00:00
    Automático
    OK