Notificações Amigos pendentes

      Cream

      Nsu

      60 reproducciones
      Tono: C
      N.S.U.
      
      intro
      
      4x(riff 1)
      
      -3-------0---3---|
      ---1---1---1---1-|
      -----0-----------|
      -----------------|
      -----------------|
      -----------------|
      
      
      (w/riff 1)
      Driving in my car, smoking my cigar,
      The only time I'm happy's when I play my guitar.
      
      F   D#  C
      F   D#  A
      G
      
      Singing in my yacht, what a lot I got,
      Happiness is something that just cannot be bought.
      
      F   D#  C
      F   D#  A
      D   C   A
      D   C   F#
      G
      
      I've been in and I'm out, I've been up and down,
      I don't want to go until I've been all around.
      
      F   D#  C
      F   D#  A
      D   C   A
      
      solo
      
      
      --------5----------10(12)-10-8h10-8h10-8(9)~~-|
      ------5---8(10)~------------------------------|
      -7(9)-----------------------------------------|
      ----------------------------------------------|
      ----------------------------------------------|
      ----------------------------------------------|
      
      
      --------15-15---------15--------15-----------------|
      -15(17)--------15(17)----15(17)----15--13-15-13~~\-|
      ---------------------------------------------------|
      ---------------------------------------------------|
      ---------------------------------------------------|
      ---------------------------------------------------|
      
      
      -/15--5---------------------------------------|
      --------8(10)-5-------------------5-----------|
      ----------------7(9)-7p5---5-7(9)---7(9)7p5h7-|
      -------------------------7--------------------|
      ----------------------------------------------|
      ----------------------------------------------|
      
      
      -10(12)-10p8-10p8---8-10(12)~~------------------------------------|
      -----------------10-------------(14)12-12-10-12(14)-12(14)12-10~~-|
      ------------------------------------------------------------------|
      ------------------------------------------------------------------|
      ------------------------------------------------------------------|
      ------------------------------------------------------------------|
      
      
      --------------------------------------|
      -12(14)-12(14)-12p10h12-12(14)-10~~~~-|
      --------------------------------------|
      --------------------------------------|
      --------------------------------------|
      --------------------------------------|
      
      
      D   C   A
      D   C   F#
      G
      
      What's it all about, anyone in doubt,
      I don't want to go until I've found it all out.
      
      F   D#  C
      F   D#  C
      F   D#  A

      Comentarios 0

      140 .
      140 cancelar

      ¿conseguiste tocar?

      covers

      ¡Grave un vídeo tocando Nsu y envie para nosotros!

      Ex.: http://www.youtube.com/watch?v=0IvSvIwGdwk
      ver cover de otras canciones »
      0:00 / 0:00

      Capitulos

        1 versão de guitarra dificuldad reproducciones contribuición y correción
        1 versão de guitarra eléctrica dificuldad reproducciones contribuición y correción
        1 versão de cavaco dificuldad reproducciones contribuición y correción
        1 versão de teclado dificuldad reproducciones contribuición y correción
        play/pausefechar subir/bajar velocidad
        6ª cuerda E5ª cuerda A4ª cuerda D3ª cuerda G2ª cuerda B1ª cuerda E
          acordes
          publicidad
          cerrar
          ok