Cifra Club

World Of Pain

Cream

Cifrado: Principal (guitarra y guitarra eléctrica)
tono: D
(verso 1)
 F          A      Dm      F  G
Outside my window is a tree
F           A     Dm       F  G
Outside my window is a tree
               B
There're only four leaves

(pré-refrão)
         D            C#m        F#m
And it stands in the gray of the city
             Bm           E7     C#7
No time for pity for the tree or me

(refrão)
 A7   D7             A7
There is a world of pain
D7              A7
In the falling rain
 D7
Around me

E|----5------------5| 
B|----5------------5| 
G|----5------------5|
D|----7-7p5--------7|
A|----7-----7-5----7|
E|----5----------5-5|

(solo)
E|----------------------------------------------------------------------|
B|--------------------------12b12b------------12-----------------12-----|
G|-12-10-12-15b15b15b-151215--------10-12h13p12--13-(12)-12h14p12-------|
D|----------------------------------------------------------------------|
A|----------------------------------------------------------------------|
E|----------------------------------------------------------------------|

E|----------------------------------------------------------------------|
B|----------------------------------------------------------------------|
G|-15-17b17-1515p14p13h14-----12p11p1013b12b11b10b11-12^^11^^-11h12-----|
D|----------------------------------------------------------------------|
A|----------------------------------------------------------------------|
E|----------------------------------------------------------------------|

E|-----------------|
B|-----------------|
G|12b12p10-9b8h9---|
D|-----------------|
A|-----------------|
E|-----------------|

(verso 2)
 F          A      Dm      F  G
Is there a reason for today
 F          A      Dm      F  G
Is there a reason for today
          B
Do you remember

(pré-refrão)
       D            C#m        F#m
I can hear all the cries of the city
             Bm          E7      C#7
No time for pity for a growing tree

00:00 / 00:00
Otros videos de esta canción
Repetir
Otros videos de esta canción
Composición de Felix Pappalardi / Gail Collins
Colaboración y revisión:
  • tulio guimaraes
529 vistas
    • ½ Tono
    • A
    • Bb
    • B
    • C
    • Db
    • D
    • Eb
    • E
    • F
    • F#
    • G
    • Ab
  • Agregar a la lista

    0 comentarios

    Ver todos los comentarios
    00:00 / 00:00
    OK