Cifra Club

Plano de Voo

Criolo

Tab de bajo: Principal
Introdução
G|-----------------------------------------------------------------------------------| 1x
D|-----------------------------------------------------------------------------------|
A|-----------------------------------------------------------------------------------|
E|-4-4~--4-4~--4-4~--4-4~--4-9~--9-7~--7-11-11-11-11-11~-----------------------------|

E por mais que eu tente... (00:24)
G|--------13-13-------13------11-11------11------11-11------11--------13-13-------13-| 4x
D|-----------------------------------------------------------------------------------|
A|-11~-11-------11-13----9~-9-------9-11----9~-9-------9-11----11~-11-------11-13----|
E|-----------------------------------------------------------------------------------|

O gostoso do inverno... (01:14)
G|--------13-13-------13------11-11------11------11---11-----------------------------| 1x
D|-----------------------------------------------------------------------------------|
A|-11~-11-------11-13----9~-9-------9-11----9~-9----9--------------------------------|
E|-----------------------------------------------------------------------------------|

REFRÃO (01:23)
G|-----------------------------------------------------------------------------------| 1x
D|-----8-8-----9---9-----8-------9---9-------------6-------4-------------------------|
A|-----------------------------------------------------------------------------------|
E|-6-6-----7-7---7---7-6---6-7-7---7---4-4-6-7-6-4---4-2-2---2-9-10-11(11x)----------|

A vida é ritual... (01:49)
G|--------------11-11------11------11-11------11--------13-13-------13---------------| 1x
D|-----------------------------------------------------------------------------------|
A|-/11~-11\9~-9-------9-11----9~-9-------9-11----11~-11-------11-13------------------|
E|-----------------------------------------------------------------------------------|

Mesmo buscando... (02:00)
G|--------13-13-------13------11-11------11------11-11------11--------13----13-------| 1x
D|-----------------------------------------------------------------------------------|
A|-11~-11-------11-13----9~-9-------9-11----9~-9-------9-11----11~-11----11----------|
E|-----------------------------------------------------------------------------------|

Ao justo... (02:12)
G|-----------------------------------------------------------------------------------| 1x
D|---------------4p3h4p3---------------------------------------6---------------------|
A|---------------------------------------------------------------6-------------------|
E|-4~-4-6-7-6-4~---------2-0-2-2-4-6-4-2-2-4-6-7-6-4-4-6-7-6-4-----------------------|

Distante como um vizinho... (02:25)
G|-----------------------------------------------------------------------------------| 1x
D|---------------4p3h4p3---------------------------------------6---------------------|
A|---------------------------------------------------------------6-------------------|
E|-4~-4-6-7-6-4~---------2-0-2-2-4-6-4-2-2-4-6-7-6-4-4-6-7-6-4-----------------------|

Desato o nó da trama... (02:37)
G|-----------------------------------------------------------------------------------| 1x
D|-----8-------9---9-----8-------9---9-------------6-------4-------------------------|
A|-----------------------------------------------------------------------------------|
E|-6-6---6-7-7---7---7-6---6-7-7---7---4-4-6-7-6-4---4-2-2---2-9-10-11(11x)\---------|

FIM (03:02)
G|-----------------------------------------------------------------------------------| 1x
D|-----------------------------------------------------------------------------------|
A|-----------------------------------------------------------------------------------|
E|-4~--2~--2~--4~--4~--2~--2~--4~----------------------------------------------------|
00:00 / 00:00
Otros videos de esta canción
Repetir
Otros videos de esta canción
Composición de Criolo / Neto
Colaboración y revisión:
  • Walter Brow
14 vistas

0 comentarios

Ver todos los comentarios

¿Lograste tocar?

0 Tocaron 0 Aún no

¡Graba un video tocando Plano de Voo y envíanoslo!

00:00 / 00:00
OK