Cifra Club

Caso Indefinido

Cristiano Araújo

Cifrado: Principal (guitarra y guitarra eléctrica)
tono: C#m
[Intro] A  A5(9)  B
        C#m  C#4(7/9)  C#m
        A  A5(9)  B
        C#m  B5(9)

E|----------------------------------------------------|
B|-----5-4\-------2-----0-0-x-0-x---3/4-4-x-----------|
G|--------------2-------2-2-x-2-x---3/4-4-x-----------|
D|-4/6---4\---2-----x-2-2-2-x-2-x-x-3/4-4-x-----------|
A|----------0-------x---0-----------1/2---------------|
E|----------------------------------------------------|

            C#m         C#4(7/9)    C#m
E|----------------------------------------------------|
B|-----5-4\-------5-----4-4-x-4-x---4h5-4-x-----------|
G|--------------6-------4-4-x-4-x---4h6-4-x-----------|
D|-4/6---4\---6-----x-6-4-4-x-4-x-x-4h6-4-x-----------|
A|----------4-------x---4-----------4-----------------|
E|----------------------------------------------------|

            A           A5(9)         B
E|----------------------------------------------------|
B|-----5-4\-------2-----0-0-x-0-x---2/4-4-x-----------|
G|--------------2-------2-2-x-2-x---2/4-4-x-----------|
D|-4/6---4\---2-----x-2-2-2-x-2-x-x-2/4-4-x-----------|
A|----------0-------x---0-----------0/2---------------|
E|----------------------------------------------------|

            C#m         B5(9)
E|----------------------------------------------------|
B|-----5-4\-------5-----------2-----------------------|
G|--------------6---6-------4---4---------------------|
D|-4/6---4\---6-------6---4-------4------2------------|
A|----------4-----------2------------2h4--------------|
E|----------------------------------------------------|

[Tab - Intro Variação 1]

            C#m
E|----------------------------------------------------|
B|-----5-4\-------5-----4-----------------------------|
G|--------------6-------4-----------------------------|
D|-4/6---4\---6-----x-6-4-----------------------------|
A|----------4-------x---4-----------------------------|
E|----------------------------------------------------|

E|----------------------------------------------------|
B|--------11----9--11----9----------------------------|
G|------9-11----9--11----9----------------------------|
D|------9----11-------11------------------------------|
A|-9h11-----------------------------------------------|
E|----------------------------------------------------|

[Tab - Intro Variação 2]

            C#m
E|----------------------------------------------------|
B|-----5-4\-------5-----4-----------------------------|
G|--------------6-------4-----------------------------|
D|-4/6---4\---6-----x-6-4-----------------------------|
A|----------4-------x---4-----------------------------|
E|----------------------------------------------------|

E|-----7----------------------------------------------|
B|-7/9---9\7-5----------------------------------------|
G|--------------8\6-4---------------------------------|
D|---------------------6\4-2--------------------------|
A|----------------------------------------------------|
E|----------------------------------------------------|

[Primeira Parte]

   E
E|----------------------------------------------------|
B|-------1-----1--1-x--1-x----------------------------|
G|-----2-------2--2-x--2-x----------------------------|
D|---2-----x-2-2--2-x--2-x--x-------------------------|
A|---------x---2--------------------------------------|
E|-0-------x------------------------------------------|

   F#m        E/G# A
E|----------------------------------------------------|
B|---2-2-2-2--5\---2-2-2-2--5-------------------------|
G|---2-2-2-2--4\---2-2-2-2--4\------------------------|
D|---4-4-4-4--2\---2-2-2-2--2\------------------------|
A|---------------0-0-0-0-0----------------------------|
E|-2-2-2-2-2--4\------------4\------------------------|

   B5(9)
E|----------------------------------------------------|
B|-------2--------------------------------------------|
G|-----4---x------------------------------------------|
D|---4-----x-4-------------2--------------------------|
A|-2-------x----2-2-2--2h4----------------------------|
E|----------------------------------------------------|

   E
Será que alguém explica a nossa relação
    C#m
Um caso indefinido, mas rola paixão
  F#m           E/G#    A             E/G#
Adoro esse perigo,   mexe demais comigo
     F#m                        B5(9)
Mas não te tenho em minhas mãos
               E
Se você quiser
   C#m
Podemos ser um caso indefinido ou nada mais
  G#m                    A
Apenas bons amigos, namorar, casar ter filhos
    F#m                A     B5(9)
Passar a vida inteira juntos

[Segunda Parte]

         F#m               C#m
E vai saber se um dia seremos nós
        F#m                     C#m
Nenhum beijo, para calar nossa voz
      F#m                   E/G#
Um minuto, uma hora, não importa o tempo
   A        B5(9)
Se estamos sós

[Refrão]

               A5(9)
Se você quiser
   B5(9)           C#m
A gente casa ou namora
                   A5(9)
A gente fica ou enrola
                B5(9)               C#m
O que eu mais quero é que você me queira
               A5(9)
Se você quiser
   B5(9)           C#m
A gente casa ou namora
                   A5(9)
A gente fica ou enrola
                B5(9)               C#m  B5(9)  A5(9)
O que eu mais quero é que você me queira
          B5(9)               C#m
Por um momento ou pra vida inteira

Repete Intro com Variações:

[Segunda Parte]

         F#m               C#m
E vai saber se um dia seremos nós
        F#m                     C#m
Nenhum beijo, para calar nossa voz
      F#m                   E/G#
Um minuto, uma hora, não importa o tempo
   A        B5(9)
Se estamos sós

[Refrão Final]

               A5(9)
Se você quiser
   B5(9)           C#m
A gente casa ou namora
                   A5(9)
A gente fica ou enrola
                B5(9)               C#m
O que eu mais quero é que você me queira
               A5(9)
Se você quiser
   B5(9)           C#m
A gente casa ou namora
                   A5(9)
A gente fica ou enrola
                B5(9)               C#m
O que eu mais quero é que você me queira
               A5(9)
Se você quiser
   B5(9)           C#m
A gente casa ou namora
                   A5(9)
A gente fica ou enrola
                B5(9)               C#m
O que eu mais quero é que você me queira
               A5(9)
Se você quiser
   B5(9)           C#m
A gente casa ou namora
                   A5(9)
A gente fica ou enrola
                B5(9)               C#m  B5(9)  A5(9)
O que eu mais quero é que você me queira
          B5(9)               C#m
Por um momento ou pra vida inteira
00:00 / 00:00
Otros videos de esta canción
Repetir
Otros videos de esta canción
Composición de Diego Damasceno / Junior / Maraisa / Paulo Mota / Thales Lessa
19.080 exhibiciones
  • Simplificar cifrado
    • ½ Tono
    • Am
    • Bbm
    • Bm
    • Cm
    • C#m
    • Dm
    • Ebm
    • Em
    • Fm
    • F#m
    • Gm
    • G#m
  • Agregar a la lista
    00:00 / 00:00
    Capítulos
    • Início
    • Tocando a Música
    • Acordes da Introdução
    • Tocando a Introdução
    • Ensinando Introdução
    • Ensinando Variação
    • Acordes Primeira Parte
    • Tocando Primeira Parte
    • Ensinando Primeira Parte
    • Tocando Segunda Parte
    • Tocando Refrão
    • Ensinando Ritmo do Refrão
    • Encerramento
    OK