Enviar cifraEntrar

Mente Pra Mim

Cristiano Araújo

Acordes: Principal
reproducciones 402
Tono: E
Intro:  C#m  E  B  F#  G#m


E|-------------------------------------------------------------------------------------|
B|------------------------------------------------9-7-7-7-7-7-7--7-7-7-7/9-7-7-7-2/7-9-|
G|-------------------------------------------------------------------------------------|
D|--6-4-6-4-6-4-6-6-6-4-6-4-6-6/8/9-6-6-4-6-4-6----------------------------------------|
A|-------------------------------------------------------------------------------------|
E|-------------------------------------------------------------------------------------|


C#m
Olha dentro dos meus olhos
                   E
E me conta umas mentiras só pra me agradar.
B
Fala que hoje eu tô bonito
                   F#                     G#m
Que ainda pensa em mim quando vai se deitar.
C#m
Diz que quando acorda todo dia
                  E
Seu primeiro pensamento pode ser que seja eu
B
Mente pra esse cara inocente
                 F#
Fala que ele ainda vai ser seu.

C#m
O amor da sua vida era eu
       F#4 F# F#4 F#
Não era verdade
A                       F#m
Eu vou amar doendo, eu vou amar sofrendo.
B
Mesmo sabendo que tudo pode acabar!

Refrão(2x):
C#m
Mente pra mim é o que eu gosto
A
Quanto mais você me ilude mais eu te adoro
E
Menina indecente, que finge ser carente
B
E é desse jeito que eu te provoco.

Intro:  C#m  A  E  B


E|----------------------------------------------------------------------------------------------------|
B|-5-5-4-5-5-4-5-4-2----5-4-5-4-5-4-5-4-5-4-5-4-2---------------------------4-2-4-2-4-2-4-4/5-4-------|
G|-------------------4----------------------------4-4-4-4-4-6-4-4-4-4-4-6-4---------------------4-----|
D|-----------------------------------------------------------------------------------------------4-6-4|
A|----------------------------------------------------------------------------------------------------|
E|----------------------------------------------------------------------------------------------------|


C#m
O amor da sua vida era eu
       F#4 F# F#4 F#
Não era verdade
A                       F#m
Eu vou amar doendo, eu vou amar sofrendo.
B
Mesmo sabendo que tudo pode acabar!

Refrão(4x):
C#m
Mente pra mim é o que eu gosto
A
Quanto mais você me ilude mais eu te adoro
E
Menina indecente, que finge ser carente
B                                  C#m
E é desse jeito que eu te provoco.
  • 1
  • 2
  • 3
  • 4
  • 5
  • 6
  • 7
  • 8
  • 9
  • 10
  • 11
  • 12
    Acordes para:
      Composición: Bigair Di Jayme,Israel Novaes e Matheus aleixoColaboración y revision:

      0 comentarios

        mostrar mas comentarios

        ¿Conseguiste tocar?

        52tocaron0aún no

        ¡Grave un vídeo tocando Mente Pra Mim y envie para nosotros!

        00:00 / 00:00
        outros vídeos desta música
        repetirqualidadeautomática
        • automática
        Outro vídeos desta música
          00:00 / 00:00
          automática
          • automática
          Acordes para:guitarra
          dificuldadreproduccionescontribuciones
          cerrarplay/pause subir/bajar velocidad
            acordes
            cerrar
            OK
            Feedback