Cifra Club

Ya No Se Que Hacer Conmigo

El Cuarteto de Nos

Cifrado: Principal (guitarra y guitarra eléctrica)
tono: D
[Intro] Bm  Em  F#m  Bm
        Bm  Em  F#m  Bm

E|---------2-------------------0----------------------|
B|-------3---3---------------0---0--------------------|
G|-----4-------4-----------0-------0------------------|
D|---4-----------4-------2-----------2----------------|
A|-2--------------------------------------------------|
E|-------------------0--------------------------------|

E|---------2-------------------2----------------------|
B|-------2---2---------------3---3--------------------|
G|-----2-------2-----------4-------4------------------|
D|---4-----------4-------4-----------4----------------|
A|--------------------2-------------------------------|
E|-2--------------------------------------------------|

[Primeira parte]

 Bm               Em            
Ya tuve que ir obligado a misa
 F#m               Bm
Ya toqué en el piano "para elisa" 
 Bm               Em              
Ya aprendí a falsear mi sonrisa
 F#m       Bm
Ya caminé por la cornisa 
 Bm           Em            
Ya cambié de lugar mi cama
 F#m              Bm
Ya hice comedia, ya hice drama 
 Bm                Em                
Fui concreto y me fui por las ramas
    F#m                  Bm
Ya me hice el bueno y tuve mala fama 

 Bm        Em             F#m 
Ya fui ético y fui errático 
               Bm
Ya fui escéptico y fui fanático 
 Bm          Em           F#m
Ya fui abúlico fui metódico
            Bm
Ya fui púdico fui caótico 

 Bm        Em              
Ya leí arthur conan doyle
 F#m           Bm
Ya me pasé de nafta a gasoil 
 Bm          Em              
Ya leí a breton y a molière
 F#m            Bm
Ya dormí en colchón y en sommier 

 Bm                Em            
Ya me cambié el pelo de color
      F#m                Bm
Ya estuve en contra y estuve a favor 
Bm                           Em
Lo que me daba placer ahora me da dolor
      F#m               Bm
Ya estuve al otro lado del mostrador 

[Refrão]

Bm    G       A          G
Y oigo una voz que dice sin razón
D         Bm           A
Vos siempre cambiando ya no cambias más 
Bm  G     A          G
Y yo estoy cada vez más igual 
 D     Bm              A   Bm
Ya no sé que hacer conmigo 

 Bm                 Em           
Ya me ahogué en un vaso de agua
 F#m         Bm
Ya planté café en nicaragua 
 Bm             Em              
Ya me fui a probar suerte a usa
 F#m           Bm
Ya jugué a la ruleta rusa 

Bm      Em                
Ya creí en los marcianos
 F#m              Bm
Ya fui ovo-lacto vegetariano, sano 
 Bm      Em              
Fui quieto y fui gitano
 F#m                   Bm
Ya estuve tranqui y estuve hasta las manos 

 Bm               Em       
Hice un curso de mitología 
 F#m               Bm
Pero de mí los dioses se reían 
Bm             Em             
Orfebrería la salvé raspando
 F#m                    Bm
Y ritmología aquí la estoy aplicando 

 Bm             Em           F#m     
Ya probé, ya fumé, ya tomé, ya dejé
                  Bm
Yya firmé, ya viajé, ya pegué
 Bm                      Em
Ya sufrí, ya eludí, ya huí, ya asumí
       F#m                  Bm
Ya me fui, ya volví, ya fingí, ya mentí 

Bm          Em             
Y entre tantas falsedades
        F#m             Bm
Muchas de mis mentiras ya son verdades 
 Bm               Em         
Hice facil las adversidades
      F#m          Bm
Y me compliqué en las nimiedades 

[Refrão]

Bm    G       A          G
Y oigo una voz que dice sin razón
D         Bm           A
Vos siempre cambiando ya no cambias más 
Bm  G     A          G
Y yo estoy cada vez más igual 
 D     Bm              A   Bm
Ya no sé que hacer conmigo 

[Solo] Bm  Em  F#m  Bm
       Bm  Em  F#m  Bm
       Bm  Em  F#m  Bm
       Bm  Em  F#m  Bm

E|-------------------------------------14-14--14-14---|
B|-12-10p8-7----7h8-----------------------------------|
G|------------------6-7-9-9/11------11----------------|
D|----------------------------------------------------|
A|----------------------------------------------------|
E|----------------------------------------------------|

E|-14-14--12-12----12-10-9-9b10----------------10-----|
B|---------------------------------------12-14-12-----|
G|------------------------------------11--------------|
D|----------------------------------------------------|
A|----------------------------------------------------|
E|----------------------------------------------------|

E|----10/12-12----12/14-14---14-14-14---14-14---12----|
B|-12-------14-14-------15---15-----------------------|
G|----------------------------------------------------|
D|----------------------------------------------------|
A|----------------------------------------------------|
E|----------------------------------------------------|

E|-12-10-9--------------------------------------------|
B|---------10/12--------------------------------------|
G|----------------------------------------------------|
D|----------------------------------------------------|
A|----------------------------------------------------|
E|----------------------------------------------------|

[Segunda parte]

Bm                Em   
Ya me hice un lifting
                F#m
Me puse un piercing
                    Bm
Fui a ver al dream team y no hubo feeling 
Bm            Em              
Me tatué al ché en una nalga
   F#m                Bm
Arriba de mami para que no se salga 

Bm          Em                   
Ya me reí y me importó un bledo
    F#m                Bm
De cosas y gente que ahora me dan miedo 
Bm         Em              
Ayuné por causas al pedo
F#m                Bm
Ya me empaché con pollo al spiedo 

Bm              Em              F#m  
Ya fui al psicólogo, fui al teólogo
             Bm
Fui al astrólogo, fui al enólogo 
 Bm             Em               
Ya fui alcohólico y fui lambeta
 F#m              Bm
Ya fui anónimo y ya hice dieta 

 Bm              Em             
Ya lancé piedras y escupitajos
F#m              Bm
Al lugar donde ahora trabajo 
Bm            Em                
Y mi legajo cuenta a destajo
  F#m                   Bm
Que me porté bien y que armé relajo 

[Refrão]

Bm    G       A          G
Y oigo una voz que dice sin razón
D         Bm           A
Vos siempre cambiando ya no cambias más 
Bm  G     A          G
Y yo estoy cada vez más igual 
 D     Bm              A   Bm
Ya no sé que hacer conmigo 

Bm    G       A          G
Y oigo una voz que dice sin razón
D         Bm           A
Vos siempre cambiando ya no cambias más 
Bm  G     A          G
Y yo estoy cada vez más igual 
 D     Bm              A   Bm
Ya no sé que hacer conmigo
00:00 / 00:00
Otros videos de esta canción
Repetir
Otros videos de esta canción
Composición de Roberto Musso
Colaboración y revisión:
  • Getúlio Vasconcelos
  • Santiago González
  • Sergio Kitayama
5.277 vistas
    • ½ Tono
    • A
    • Bb
    • B
    • C
    • Db
    • D
    • Eb
    • E
    • F
    • F#
    • G
    • Ab
  • Agregar a la lista

    0 comentarios

    Ver todos los comentarios

    ¿Lograste tocar?

    11 Tocaron 0 Aún no

    ¡Graba un video tocando Ya No Se Que Hacer Conmigo y envíanoslo!

    00:00 / 00:00
    OK