Cifra Club

I Just Died In Your Arms Tonight

Cutting Crew

Cifrado: Principal (guitarra y guitarra eléctrica)
tono: D
Intro:
E|------------------------------------------------------------------------|
B|--7-7-7-7-7-7-7-7-10-10-10-8-8-8-7-7-7-5-5-5-----------7-7-7------------|
G|--7-7-7-7-7-7-7-7-11-11-11-9-9-9-7-7-7-6-6-6-6-6-6-6-6-6-6-6-6-6-6-6-6--|
D|---------------------------------------------7-7-7-7-7-------8-8-8-8-8--|
A|------------------------------------------------------------------------|
E|------------------------------------------------------------------------|
I, I just died in your arms tonight
It must been something you said
I just died in your arms tonight...
 Bm
E|-------5------5-7-2-------------|
B|---2-3----2-3-------------------|
G|--------------------------------|
D|--------------------------------|
A|--------------------------------|
E|--------------------------------|

Verso:
Bm
   I keep looking for someone thing I can't get
G
   Broken hearts lie all around me and I
A                                     F#
don't see an easy way      to get out  of this
Bm
Her diary it sits by the bedside table.
G
The curtains are closed, the cat's in the cradle.
A                                             F#
Who would've though that a boy like me could come to this
Oh  Oh Oh Oh
E|--------------|
B|--------------|
G|--2-2---2-2---|
D|--2-2---2-2---|
A|------4-----4-|
E|--------------|

Refrão:                           
E|-------2---------|-------------|---------0-0--------|---------------|
B|-------3--3------|-------0-----|-------------2-0----|---------------|
G|-----4------4----|-------0-----|-----1/2---------2--|---------------|
D|---4----------4--|-----2---2---|---2----------------|-4-3-4-3-4-2---|
A|-2---------------|---2-------2-|-0------------------|-------------5-|
E|-----------------|-0-----------|--------------------|---------------|
Bm         Em                   A    F#m                           Bm
I, I just died in your arms tonight. It must've been something you said
           Em                    A     F#m
   I just died in your arms tonight,     Oh Oh Oh
Bm          Em                    A             F#m
(I) I just died in your arms tonight, It must've been some kind of
Bm            Em               A  F#
Kiss.   I  should've walked away,  I should’ve walked away
E|-7-7-----5-5---------------------7-|-------5--|
B|-----7-7-----5-5-7-7-------------7-|---2-3----|
G|---------------------7-7-9-7---7---|----------|
D|-----------------------------9-----|----------|
A|-----------------------------------|----------|
E|-----------------------------------|----------|

Verso 2:
Bm
Is there any just cause for feeling like this?
G
On the surface I'm a name on a  list
A                    F#
I try to be discreet, then blow it again
Bm
I've lost and found, it's my final mistake ,
G
She's loving by proxy, no give and all take,
A                                    F#
'Cause I've been thrilled to fantasy one too many times

Ponte:
G
   It was a     long hot night
Em
She made it easy. She make it feel right
G
But now it's over the moment has gone I
F#           Bm             F#
follwed my hands -- not my head -- I know I was wrong
Solo:
E|-14--------12-------------------------------------------------------------|
B|---12-12-----10------------------3-5-3-5-3-3------------------------------|
G|----------------2\1/2-4^4^-4^-2-4-4-4-4-4---4-6-4-2-2---------------------|
D|--------12------2\1/2------------------------------4-4-2-0-2-0---0--------|
A|----------------------------------------------------------4---4-2-4-2-0-2-|
E|--------------------------------------------------------------------------|

E|------------------------------------------------------------------------|
B|--7-7-7-7-7-7-7-7-10-10-10-8-8-8-7-7-7-5-5-5-----------7-7-7------------|
G|--7-7-7-7-7-7-7-7-11-11-11-9-9-9-7-7-7-6-6-6-6-6-6-6-6-6-6-6-6-6-6-6-6--|
D|---------------------------------------------7-7-7-7-7-------8-8-8-8-8--|
A|------------------------------------------------------------------------|
E|------------------------------------------------------------------------|
I, I just died in your arms tonight
It must been something you said
I just died in your arms tonight...
Lead n...
E|--------------|
B|--------------|
G|--2-2---2-2---|
D|--2-2---2-2---|
A|------4-----4-|
E|--------------|
00:00 / 00:00
Otros videos de esta canción
Repetir
Otros videos de esta canción
Composición de Nick Van Eede
Colaboración y revisión:
  • Camila Pacheco
6.106 exhibiciones
    • ½ Tono
    • A
    • Bb
    • B
    • C
    • Db
    • D
    • Eb
    • E
    • F
    • F#
    • G
    • Ab
  • Agregar a la lista
    00:00 / 00:00
    OK