Cifra Club

True Color

Cyndi Lauper

Cifrado: Principal (guitarra y guitarra eléctrica)
Selo Cifra Club: esta cifra foi revisada para atender aos critérios oficiais da nossa Equipe de Qualidade.
tono: Am
(intro)

E|3-----3-3-----3-|3---------------|3-----3-3-----3-|3---------------|
B|--0-1-----0-1---|--0-1-------0-1-|--0-1-----0-1---|--0-1-----------|
G|----------------|------2---------|----------------|------2---------|
D|----------------|----------------|----------------|----------------|
A|0-----0-2-----2-|3---------------|0-----0-2-----2-|3---------------|
E|----------------|------1---1-----|----------------|------1---------|

                                                          You with the
E|3-----3-3-----3-|3---------------|3-----3-3-----3-|3---------------|
B|--0-1-----0-1---|--0-1-------0-1-|--0-1-----0-1---|--0-1-----------|
G|----------------|------2---------|----------------|------2---------|
D|----------------|----------------|----------------|----------------|
A|0-----0-2-----2-|3---------------|0-----0-2-----2-|3---------------|
E|----------------|------1---1-----|----------------|------1---------|

  sad     eyes     don't....                                     In a
E|0-------3-------|0-1-3-3-----0---|3-----1-----0---|0---------------|
B|1-------3-------|1-----1-------1-|--------------3-|1-----3---------|
G|2-------4-------|0-----0---0-----|----------------|------0---------|
D|----------------|----------------|----------------|----------------|
A|0-------2-------|3---------------|----------------|0---------------|
E|----------------|------0-------0-|1---------------|------3---------|

  world....                         darkness....           But I'll see..
E|----------------|----------------|0---------------|----------------|
B|5-----5-6-----6-|8-----10----8---|1-----3---------|3-------1-------|
G|----5-------7---|----9-10--------|2-----4---------|----------------|
D|--5-------7-----|--9---10--------|------5---------|3-------2-------|
A|3-------5-------|7-----8---------|----------------|3-------3-------|
E|----------------|----------------|----------------|----------------|

  True  Colors....                  True Colors..and that's...
E|1-----0---------|3-----3---------|1-----0---------|1-----3-----3---|
B|1-----1---------|1---1-0-----0-3-|1-----1-------1-|1---1-1-----0---|
G|2---2-0-----0---|--0-------0-----|2---2-0-----0---|--2-------0-----|
D|--3-------2-----|----------------|--3-------2-----|----------------|
A|------3-------3-|----------------|----------------|----------------|
E|1---------------|3-----3---------|1-----0---------|1-----3-----3---|

   don't be afraid....              True colors      True colors
E|----------------|----------------|----------------|----------------|
B|--3-1-1---------|--3-1-1---------|----------------|----1-----------|
G|2---2-0-----0---|2-----2---------|--0---0---------|--2---0---------|
D|--3-------2-----|3---------------|3-----2-------2-|3-----2---------|
A|------3-------3-|------0---------|3-----3---------|3-----3---------|
E|1---------------|1---------------|----------------|----------------|

 beautiful..like a
E|3---------------|
B|3---------------|
G|5---------------|
D|----------------|
A|----------------|
E|3---------------|

  rainbow.....                                               Show me a
E|3-----3-3-----3-|3---------------|3-----3-3-----3-|3---------------|
B|--0-1-----0-1---|--0-1-----0-1---|--0-1-----0-1---|--0-1-----------|
G|----------------|------2-------2-|----------------|------2---------|
D|----------------|----------------|----------------|----------------|
A|0-----0-2-----2-|3---------------|0-----0-2-----2-|3---------------|
E|----------------|------1-------1-|----------------|------1---------|

  smile   then     Don't be....     remember...      last saw....    If
E|0-------3-------|0-1-3-3-----0-3-|3-----1-----0---|0---------------|
B|1-------3-------|1-----1---------|--------------3-|1-----3-----0-3-|
G|2-------4-------|0-----0---0-----|----------2-----|------0---0-----|
D|----------------|----------------|----------------|----------------|
A|0-------2-------|3---------------|----------------|0---------------|
E|----------------|------0---------|1---------------|------3---------|

  this world...                     You call...      know...  I'll see..
E|----------------|----------------|0---------------|----------------|
B|5-----5-6-----6-|8-----10----8---|1-----3---------|3-------1-------|
G|----5-------7---|----9-10--------|2-----4---------|----------------|
D|--5-------7-----|--9---10--------|------5---------|3-------2-------|
A|3-------5-------|7-----8---------|----------------|3-------3-------|
E|----------------|----------------|----------------|----------------|

  True  Colors....                  True Colors..and that's...
E|1-----0---------|3-----3---------|1-----0---------|1-----3-----3---|
B|1-----1---------|1---1-0-----0-3-|1-----1-------1-|1---1-1-----3---|
G|2---2-0-----0---|--0-------0-----|2---2-0-----0---|--2-------0---0-|
D|--3-------2-----|----------------|--3-------2-----|----------------|
A|------3-------3-|----------------|----------------|----------------|
E|1---------------|3-----3---------|1-----0---------|1-----3-----3---|

  don't be afraid....              True colors      True colors
E|----------------|----------------|----------------|----------------|
B|1-----1-------1-|1-----1---------|1-----1-------1-|1-----1---------|
G|2---2-0-----0---|2---3-2-----2---|2-----0-----0---|2-----0-----0---|
D|--3-------2-----|--3-------------|3-----2---2-----|3-----2---2-----|
A|------3-------3-|------0---------|3-----3---------|3-----3-------3-|
E|1---------------|1---------------|----------------|----------------|

  Beautiful...
E|3---------------|
B|3---------------|
G|5---------------|
D|----------------|
A|----------------|
E|3---------------|

 Rainbow....
E|3-----3-3-----3-|3---------------|3-----3-3-----3-|3---------------|
B|--0-1-----0-1---|--0-1-----0-1---|--0-1-----0-1---|--0-1-----0-1---|
G|----------------|------2-------2-|----------------|------2-------2-|
D|----------------|----------------|----------------|----------------|
A|0-----0-2-----2-|3---------------|0-----0-2-----2-|3---------------|
E|----------------|------1-------1-|----------------|------1-------1-|

  Ooo...                            Can't remember...               If
E|0-------3-------|0-----3---------|3-----1-----0---|0---------------|
B|1-------3-------|1-----3---------|--------------3-|1-----3---------|
G|2-------4-------|0-----5---------|----------------|------0---------|
D|----------------|----------------|----------------|----------------|
A|0-------2-------|3---------------|----------------|0---------------|
E|----------------|------0---------|1---------------|------3---------|

 if this world..                         call me...     know...  I'll..
E|----------------|----------------|0---------------|----------------|
B|5-----5-6-----6-|8-----10----8---|1-----3-------3-|1-------1-------|
G|----5-------7---|----9-10--------|2---2-4-----4---|----------------|
D|--5-------7-----|--9---10--------|------5---5-----|3-------2-------|
A|3-------5-------|7-----8---------|----------------|3-------3-------|
E|----------------|----------------|----------------|----------------|

  True  Colors....                  True Colors..and that's...
E|1-----0---------|3-----3---------|1-----0---------|1-----3-----3---|
B|1-----1-------1-|1---1-0-----0-3-|1-----1-------1-|1---1-1-----3---|
G|2---2-0-----0---|--0-------0-----|2---2-0-----0---|--2-------0---0-|
D|--3-------2-----|----------------|--3-------2-----|----------------|
A|------3---------|----------------|----------------|----------------|
E|1---------------|3-----3---------|1-----0---------|1-----3-----3---|

  don't be afraid....              True colors      True colors
E|----------------|----------------|----------------|----------------|
B|1-----1---------|1-----1---------|1-----1-------1-|1-----1---------|
G|2---2-0-----0---|2---3-2-----2---|2---2-0-----0---|2---2-0-----0---|
D|--3-------2-----|--3-------------|3-3---2---2-----|3-3---2---2-----|
A|------3-------3-|------0---------|3-----3-------3-|3-----3-------3-|
E|1---------------|1---------------|----------------|----------------|

  True colors..    shining through..True colors...and that's....
E|----------------|----------------|1---------3-----|1-------3---3---|
B|1-----1-----1---|1-----0-----0-3-|1-----1---1-----|1-------1---0---|
G|2---2-0---2-----|2---2-0---0-----|2---2-0---0---0-|2---2-----0---0-|
D|3-3---2---------|--3-------------|--3---2---------|--3-------------|
A|3-----3-3-------|----------------|----------------|----------------|
E|----------------|3-----3-------3-|1-----0---3-----|1-----1-3---3---|

  Don't be....     let them show..  True colors      True colors...
E|1-----0---------|----------------|----------------|----------------|
B|1-----1---------|0-----1---------|1-----1---------|1-----1---------|
G|2---2-0---------|1-----2---------|2-----0---------|2-----0---------|
D|--3-------------|3-----2---------|3-----2---------|3-----2---------|
A|------3---------|------0---------|3-----3---------|3-----3---------|
E|1---------------|1---------------|----------------|----------------|

  Beautiful...           Like a rainbow
E|3---------------|----------------|3-----3-3-----3-|0h1-0-----------||
B|3---------------|----------------|--0-1-----0-1---|------3-1-------||
G|5---------------|----------------|----------------|--------2-------||
D|----------------|----------------|----------------|----------------||
A|----------------|----------------|0-----0-1-----1-|3---------------||
E|3---------------|----------------|----------------|--------1-------||
Otros videos de esta canción
    21.070 exhibiciones
      • ½ Tono
      • Am
      • Bbm
      • Bm
      • Cm
      • C#m
      • Dm
      • Ebm
      • Em
      • Fm
      • F#m
      • Gm
      • G#m
    • Agregar a la lista

    Afinación de cifrado

    Afinador online

      OK