Cifra Club

Rompe Intro

Daddy Yankee

Tablatura: Principal (guitarra)
Tom: C
CanCiOn: rompe

JhAiR GaLindO
*


Bueno la introduccion es asi

e|--------------------------------------|
B|--------------------------------------|
G|-----9----7----5----4-----------------|
D|--------------------------------------|
A|---7----5----3----2-------------------|
E|--------------------------------------|


e|--------------------------------------|
B|--------------------------------------|
G|-----9----7----5----4-----------------|
D|--------------------------------------|
A|---7----5----3----2-------------------|
E|--------------------------------------|


e|--------------------------------------|
B|--------------------------------------|
G|-------2-------4----------------------|
D|--------------------------------------|
A|-----0-------2------------------------|
E|--------------------------------------|

toda la cancion es lo mismo
reproducciones 77
Acordes para:

    0 comentarios

    mostrar más comentarios

    ¿Conseguiste tocar?

    0 tocaron 0 aún no

    ¡Graba un vídeo tocando Rompe Intro y envianoslo!

    00:00 / 00:00
    outros vídeos desta música
    repetir qualidade Automático
    Outros vídeos desta música
    00:00 / 00:00
    Automático
    OK