Cifra Club

Deconform

Daedalian

Cifrado: Principal (guitarra y guitarra eléctrica)
tono: C

Album: Rigor Mortis
Transcribed by: Brian Cunningham
Email: *

Another strangely  mellow/heavy song about not fitting in!

Intro/Verse (clean)

-|----------------------------------------------------------------------------|
-|----------------------------------------------------------------------------|
-|----------------------------------------------------------------------------|
-|----------------------------------------------------------------------------|
-|----5----5---5----5----5-5h7----5----5---5----5---4---54--------------------|
-|-77---77---7---55---55-------33---33-------55---5---5-----------------------|
  Chorus (heavy distortion)               Same chords just cnstant strumming

-|-------------------------------------|--------------------------------------|
-|-------------------------------------|--------------------------------------|
-|-------------------------------------|--------------------------------------|
-|-99-9-999-77-7-777-55-5-555-77-7-777-|--------------------------------------|
-|-99-9-999-77-7-777-55-5-555-77-7-777-|--------------------------------------|
-|-77-7-777-55-5-555-33-3-333-55-5-555-|--------------------------------------|
   Bridge 1

-|----------------------------------------------------------------------------|
-|----------------------------------------------------------------------------|
-|-7-7-777-77-----------------------------------------------------------------|
-|-7-7-777-77-7-7-777-77-2-2-222-22-5-5-555-55--------------------------------|
-|-5-5-555-55-7-7-777-77-2-2-222-22-5-5-555-55--------------------------------|
-|------------5-5-555-55-0-0-000-00-3-3-333-33--------------------------------|


-|----------------------------------------------------------------------------|
-|----------------------------------------------------------------------------|
-|----------------------------------------------------------------------------|
-|-------------------------------------------7545-----7545--------------------|
-|-5-5-5-4575-----7545-----2454-----9757-555-------------------2454-----9757--|
-|------------555------000------333---------------555------000------333-------|
   Bridge 2

-|----------------------------------------------------------------------------|
-|----------------------------------------------------------------------------|
-|------11-----12-----11----------9-----7-----6h76----7----6----7----7h67-----|
-|-9999----999----999----999/7777---777---777------55---55---55---55----------|
-|----------------------------------------------------------------------------|
-|----------------------------------------------------------------------------|


-|----------------------------------------------------------------------------|
-|----------------------------------------------------------------------------|
-|----7----6----9----7----6---------------------------------------------------|
-|-77---77---77---77---77-----------------------------------------------------|
-|----------------------------------------------------------------------------|
-|----------------------------------------------------------------------------|
 Daeda info http://*
Compositor não encontrado.
11 vistas
    • ½ Tono
    • A
    • Bb
    • B
    • C
    • Db
    • D
    • Eb
    • E
    • F
    • F#
    • G
    • Ab
  • Agregar a la lista

    0 comentarios

    Ver todos los comentarios

    ¿Lograste tocar?

    0 Tocaron 0 Aún no

    ¡Graba un video tocando Deconform y envíanoslo!

    00:00 / 00:00
    Outros vídeos desta música
    Repetir Calidad Automático
    Outros vídeos desta música
    00:00 / 00:00
    Automático
    OK