Cifra Club

Experiência

DaGuiné

Cifrado: Principal (guitarra y guitarra eléctrica)
tono: Am
[Intro]

E|----------------------------------------------------------------|
B|----------------------------------------------------------------|
G|----------------------------------------------------------------|
D|--5h7p5-----------------5h7p5-----------------------------------|
A|-------7p5\3-3--3-3-5\-------7p5\3-3----------------------------|
E|-5-------------5-5------------------xx-345\---------------------|

E|----------------------------------------------------------------|
B|----------------------------------------------------------------|
G|----------------------------------------------------------------|
D|---17h19p17------------------------17h19p17---------------------|
A|-----------19p17\15-15---15--15-17\--------19p17\15-15----------|
E|-17--------------------17--17-------------------------xx-151617-|


Am
A infinita inteligência

Me colocou no mundo

Só pra realizar, o meu melhor

Am
Excesso de análise

Não leva ao autoconhecimento

Mas paralisa, mas paralisa

[Refrão]

E|---------------------------------------5~-|
B|------------------------------1-----3--5~-|
G|-----------------5b7---------2-2---4-4-5~-|
D|--3-3-2-------5-7---7-5-7\3-3---3/5----7~-|
A|-------3/5~~------------------------------|
E|-------------5----------------------------|

           F        Dm       Am
Faz da sua vida melhor, experiência
           F            G    Am
Somente assim você vai ser, feliz
       F  Dm       Am
Experimenta, experimenta
           F        Dm       Am
Faz da sua vida melhor, experiência

[Riff]

E|---------------------------------|
B|---------------------------------|
G|---------------------------------|
D|--5h7p5--------------------------|
A|-------7p5\3-3-------------------|
E|-5------------xx-345\------------|

E|---------------------------------|
B|---------------------------------|
G|---------------------------------|
D|---17h19p17----------------------|
A|-----------19p17\15-15-----------|
E|-17-------------------xx-151617\-|

Am
A vida não é uma corrida

É uma jornada

E o caminho é tão importante

Quanto a chegada, é uma jornada

Am
E o caminho é tão importante

Quanto a chegada, é uma jornada

[Refrão]

E|---------------------------------------5~-|
B|------------------------------1-----3--5~-|
G|-----------------5b7---------2-2---4-4-5~-|
D|--3-3-2-------5-7---7-5-7\3-3---3/5----7~-|
A|-------3/5~~------------------------------|
E|-------------5----------------------------|

           F        Dm       Am
Faz da sua vida melhor, experiência
           F            G    Am
Somente assim você vai ser, feliz
       F  Dm       Am
Experimenta, experimenta
           F        Dm       Am
Faz da sua vida melhor, experiência

[Solo]

E|-------------------------------------------------------|
B|-10h13p10\5h8p5----------------------------------------|
G|----------------7p5-5-7-7b9~-5-7p5------4h5p4----------|
D|-------------------7--------------7-5-7------5/7-------|
A|-------------------------------------------------------|
E|-------------------------------------------------------|

E|-------------------------------------------------------|
B|--------------------------8-10b13r10p8-10-10-10-10~~~~-|
G|----5-7-5-7b9r7-5-7-5--7/9-----------------------------|
D|-5h7---------------------------------------------------|
A|-------------------------------------------------------|
E|-------------------------------------------------------|


Am
A vida não é uma corrida

É uma jornada

E o caminho é tão importante

Quanto a chegada, é uma jornada

[Refrão]

E|---------------------------------------5~-|
B|------------------------------1-----3--5~-|
G|-----------------5b7---------2-2---4-4-5~-|
D|--3-3-2-------5-7---7-5-7\3-3---3/5----7~-|
A|-------3/5~~------------------------------|
E|-------------5----------------------------|

           F        Dm       Am
Faz da sua vida melhor, experiência
           F            G    Am
Somente assim você vai ser, feliz
       F  Dm       Am
Experimenta, experimenta
           F        Dm       Am
Faz da sua vida melhor, experiência

[Final]

E|---------------------------------|
B|---------------------------------|
G|---------------------------------|
D|--5h7p5--------------------------|
A|-------7p5\3-3-------------------|
E|-5------------xx-345\------------|

E|---------------------------------|
B|---------------------------------|
G|---------------------------------|
D|---17h19p17----------------------|
A|-----------19p17\15-15-----------|
E|-17-------------------xx-151617\-|
00:00 / 00:00
Otros videos de esta canción
Repetir
Otros videos de esta canción
Composición de Daniel Patrício / Davi Patricio / Denys Henri Sacavem / Gustavo Langi / Kalany Emilio / Raoni Emílio / Yan Luiz dos Santos
Colaboración y revisión:
  • DaGuiné .
    • ½ Tono
    • Am
    • Bbm
    • Bm
    • Cm
    • C#m
    • Dm
    • Ebm
    • Em
    • Fm
    • F#m
    • Gm
    • G#m
  • Agregar a la lista
    00:00 / 00:00
    OK