Cifra Club

Fils De France

Damien Saez

Cifrado: Principal (guitarra y guitarra eléctrica)
tono: C
tabbed by Moth

E||--------0--------0--------|--------0--------0-------|   
B||-----0--------0--------0--|-----0--------0-----3----|   
G||--------------------------|-------------------------|    
D||--2--------2--------2-----|-------------------------|    
A||--------------------------|--3--------3-------------|
E||--------------------------|-------------------------|


                                                      
-----------------0--------|--------------------------|
--------3--------------3--|--------3--------1-----0--|
-----0--------0-----------|-----2--------2-----------|
--------------------------|--0--------0--------0-----|
--------------------------|--------------------------|
--3--------3--------3-----|--------------------------|


                                                       
|---------0--------0--------|--------0--------0-------|
|------0--------0--------0--|-----0--------0-----3----|
|*--------------------------|-------------------------|
|*--2--------2--------2-----|-------------------------|
|---------------------------|--3--------3-------------|
|---------------------------|-------------------------|

                                                      2x
-----------------0--------|---------------------------||
--------3--------------3--|--------3--------1-----0---||
-----0--------0-----------|-----2--------2-----------*||
--------------------------|--0--------0--------0-----*||
--------------------------|---------------------------||
--3--------3--------3-----|---------------------------||


                                                                                
-----0--------0--------|--------0--------0-------|-----------------0--------|
--0--------0--------0--|-----0--------0-----3----|--------3--------------3--|
-----------------------|-------------------------|-----0--------0-----------|
2-------2--------2-----|-------------------------|--------------------------|
-----------------------|--3--------3-------------|--------------------------|
-----------------------|-------------------------|--3--------3--------3-----|


                                                        
--------------------------||---------0--------0--------|
--------3--------1-----0--||------0--------0--------0--|
-----2--------2-----------||*--------------------------|
--0--------0--------0-----||*--2--------2--------2-----|
--------------------------||---------------------------|
--------------------------||---------------------------|


                                                     
--------0--------0-------|-----------------0--------|
-----0--------0-----3----|--------3--------------3--|
-------------------------|-----0--------0-----------|
-------------------------|--------------------------|
--3--------3-------------|--------------------------|
-------------------------|--3--------3--------3-----|

                           2x                                      
---------------------------||------------------|------------------|
--------3--------1-----0---||--For the rythmic learn chords
-----2--------2-----------*||--------------------------------------
--0--------0--------0-----*||------------------|------------------|
---------------------------||------------------|------------------|
---------------------------||------------------|------------------|

Enjooooyy!
00:00 / 00:00
Otros videos de esta canción
Repetir
Otros videos de esta canción
Compositor no encontrado.
21 vistas
    • ½ Tono
    • A
    • Bb
    • B
    • C
    • Db
    • D
    • Eb
    • E
    • F
    • F#
    • G
    • Ab
  • Agregar a la lista

    0 comentarios

    Ver todos los comentarios

    ¿Lograste tocar?

    0 Tocaron 0 Aún no

    ¡Graba un video tocando Fils De France y envíanoslo!

    00:00 / 00:00
    OK