Cifra Club

Stupid Love

Dan + Shay

Cifrado: Principal (guitarra y guitarra eléctrica)
tono: F (con acordes en la forma de C) Capotraste en 5ª casa
[Intro]

E|---------------------------------------------------------------------------|
B|-3-3-3-3-3-3-3-3-1-1-1-1-1-1-1-1-1-1-1-1-1-1-1-1-1-1-1-1-1-1-1-1-----------|
G|-0-0-0-0-0-0-0-0-0-0-0-0-0-0-0-0-2-2-2-2-2-2-2-2-0-0-0-0-0-0-0-0-----------|
D|---------------------------------------------------------------------------|
A|---------------------------------------------------------------------------|
E|---------------------------------------------------------------------------|

 G                                 C
You sure know how to pick 'em now, don't ya?
     Am7                                  C
That job, that smile, that might kiss you goodnight
G                          C
So take it easy on me now, won't ya?
    Am7                             C
You know just what gets to me every time
       Am7
Sayin' I ain't gonna call, then I call
                  C
Now I'm in a car, driving too fast, goin' too far

     G
That stupid love
            C
Just when I thought that I kicked that habit
    Am7
You work a little midnight magic
    C
And there I go again
D                    G                       C
Fallin' back in that stupid love, pulling me in like a boomerang
     Am7
It's always the same damn thing
C
Can't get enough
D                    G                 C                        Am7      C    D
'Nuff of that stupid lo-love, lo-love, lo-love, love, love, love

[Solo]

E|-/15-15-------12-12-----/15-15-------12-12---------------------------------|
B|--------15-15-------13---------15-15-------13-15---------------------------|
G|---------------------------------------------------------------------------|
D|---------------------------------------------------------------------------|
A|---------------------------------------------------------------------------|
E|---------------------------------------------------------------------------|

G                                    C
I hate the way I need ya when you're leaving
    Am7
You come and go
                     C     D
You do just what you like, yeah
   G
We break up just to make up
           C
Slide your makeup off the counter
      Am7
Goin' back and forth for hours
      C               D
Baby, I ain't got the power to fight

     G
That stupid love
            C
Just when I thought that I kicked that habit
    Am7
You work a little midnight magic
    C
And there I go again
D                    G                       C
Fallin' back in that stupid love, pulling me in like a boomerang
     Am7
It's always the same damn thing
C
Can't get enough
D                    G                 C                         Am7      C    D
'Nuff of that stupid lo-love, lo-love, lo-love, love, love, love

E|-/15-15-------12-12------17-15-12-15-12----12------------------------------|
B|--------15-15-------13------------------15----15-13-15---------------------|
G|---------------------------------------------------------------------------|
D|---------------------------------------------------------------------------|
A|---------------------------------------------------------------------------|
E|---------------------------------------------------------------------------|

     G                  C
That stupid love, love, love
     Am7                C
That stupid love, love, love
D
Fallin' back in

     G
That stupid love (hey)
            C
Just when I thought that I kicked that habit (thought that I kicked that habit)
    Am7
You work a little midnight magic (work that midnight magic)
    C
And there I go again
D                         G
Fallin' back in (oh) that stupid love (yeah)
           C
Pulling me in like a boomerang (oh-oh)
     Am7
It's always the same damn thing (damn thing)
C
Can't get enough
D                    G                 C
'Nuff of that stupid lo-love, lo-love, lo-love, love, love, love
Am7
Can't get enough, can't get enough
C                 D
Need it too much, stupid love
G                 C
Lo-love, lo-love, lo-love, love, love, love
Am7        C   D
Oh-oh, yeah
G
Lo-love, lo-love, lo-love, love, love, love
00:00 / 00:00
Otros videos de esta canción
Repetir
Otros videos de esta canción
Compositor no encontrado.
Colaboración y revisión:
  • Guilherme Gesualdi
13 vistas
    • ½ Tono
    • A
    • Bb
    • B
    • C
    • Db
    • D
    • Eb
    • E
    • F
    • F#
    • G
    • Ab
  • Agregar a la lista

    0 comentarios

    Ver todos los comentarios

    ¿Lograste tocar?

    0 Tocaron 0 Aún no

    ¡Graba un video tocando Stupid Love y envíanoslo!

    00:00 / 00:00
    OK