Cifra Club

Eres mi todo

Daniel Calveti

Cifrado: Principal (guitarra y guitarra eléctrica)
tono: Bm

Solo de guitarra.
                    Bm             G
E|--------------------------------------------------------|
B|-------15-14--15---------15-------15--------------------|
G|-14-16| L-------------14-------14-------14----------------|
D|----------------------12-------12-----------------------|
A|----------------------------------------12----14--------|
 (6ta) E |-------------------------------------------14-----------|

             D                       A   (rapidooooooo)
E|-----15-------17----------------------------------------|
B|--14----15-14----15-14-15/19---14----14-15-17-----------|
G|----------------------------------16--------------------|
D|--------------------------------------------------------|
A|--------------------------------------------------------|
 (6ta) E |--------------------------------------------------------|

            Bm                    A
E|--14-14--------------17s19-17-17/10--------|
B|--------17-15-17| L--14----------------------|
G|-------------------------------------------|
D|-------------------------------------------|
A|-------------------------------------------|
 (6ta) E |-------------------------------------------|

           G
E|---------15| L-14--------------------------|
B|------15-------15----15-17| L--------------|
G|---14------------14---------14-16| L-14----|
D|--------------------------------------12-|
A|-----------------------------------------|
 (6ta) E |-----------------------------------------|
Composición de Daniel Calveti
1 vistas
    • ½ Tono
    • Am
    • Bbm
    • Bm
    • Cm
    • C#m
    • Dm
    • Ebm
    • Em
    • Fm
    • F#m
    • Gm
    • G#m
  • Agregar a la lista

    0 comentarios

    Ver todos los comentarios
    00:00 / 00:00
    Otros videos de esta canción
    Repetir Calidad Automático
    Otros videos de esta canción
    00:00 / 00:00
    Automático
    OK