Cifra Club

Un día más

Daniel Calveti

Cifrado: Principal (guitarra y guitarra eléctrica)
tono: Fm
E|------------------------------------------------------------------------------|

Tonalidad:    G#




Intro:
  Ab             Db             D#       Db         Ab         Db
E|-----------------------------------------------------------------------|
B|--------------------8s9-8-4------6-8-9-13--9-9-------------------------|
G|--6s8----5-6-8-6----------------------------------6-8-8------6-6-8-----|
D|-----------------------------------------------------------------------|

         D#                 Db
E|-----------------------------------------------------------------------|
B|-----------------------------------------------------------------------|
G|--6-5-5h6-3-------------5-3-1-3-6-8------------------------------------|
D|-----------------------------------------------------------------------|
                                                   Es mejor.....


Verso:
  Ab
  Es mejor estar
  Eb/G                  C/E
  un día en tu presencia
                      Fm7
B|-----------------------8-6------|
  que mil fuera de ella.
  Db                Ab         C/E
  Es mejor cantarte una melodía
                           Fm7
  que narrarte todo un cuento.
  Cm
  Prefiero aprovechar
  Db
  todo este tiempito
  Db
  porque estoy acostumbrado
      Ebsus4        Eb   Db/F
  que mañana amaneceré.



Coro:
          Eb/G                    Ab
Pero qué bueno que tengo un día más
           Eb/G
para adorarte,
                           Fm7
qué bueno que tengo un día más
               Db
para agradecerte,
                            Ab
qué bueno que tengo un día más,
                         Eb/G
no tengo tiempo de quejarme,
                            Fm7
qué bueno que tengo un día más
                           Db
B|------------------------------------9s11--9---|
  para entregarme sin reservas.




Verso:
  Ab
  Es mejor estar
  Eb/G                  C/E
  un día en tu presencia
                      Fm7
  que mil fuera de ella.
  Db                Ab         C/E
  Es mejor cantarte una melodía
                           Fm7
  que narrarte todo un cuento.
  Cm
  Prefiero aprovechar
  Db
  todo este tiempito
  Db
  porque estoy acostumbrado
      Ebsus4        Eb   Db/F
  que mañana amaneceré.




Coro:
          Eb/G                    Ab
Pero qué bueno que tengo un día más
           Eb/G
para adorarte,
                           Fm7
qué bueno que tengo un día más
               Db
para agradecerte,
                            Ab
qué bueno que tengo un día más,
                         Eb/G
no tengo tiempo de quejarme,
                            Fm7
qué bueno que tengo un día más
                         Db
para entregarme sin reservas.





Outro:
       Ab              Eb/G
Un día más te adoro, Dios.
      Fm7               Db
Un día más te adoro, Dios.
       Ab              Eb/G
Un día más te adoro, Dios.
      Fm7               Db
Un día más te adoro, Dios
       Ab             Eb
Un día mas para adorarte
      Fm7             Db
Un día más para entregarme
       Ab          Eb
Un día más para creerte
      Fm7                        Db
Un día más para estar, apegado a Tí
Composición de Daniel Calveti
5 vistas
    • ½ Tono
    • Am
    • Bbm
    • Bm
    • Cm
    • C#m
    • Dm
    • Ebm
    • Em
    • Fm
    • F#m
    • Gm
    • G#m
  • Agregar a la lista

    0 comentarios

    Ver todos los comentarios
    00:00 / 00:00
    Otros videos de esta canción
    Repetir Calidad Automático
    Otros videos de esta canción
    00:00 / 00:00
    Automático
    OK