Cifra Club

Vivo para tí

Daniel Calveti

Cifrado: Principal (guitarra y guitarra eléctrica)
tono: C

  |       C      |         G         |
E|--8-7---------|-------------------|
B|-8------8--8--|------------8-8----|
G|--------------|-9-9-9--10---------|
D|--------------|-------------------|
A|--------------|-------------------|
E|--------------|-------------------|
   Me viste ami  cuando nadie me vio

  |         Am        |         F           |
E|----8-7------------|---------------------|
B|--8------8--10-----|---------------------|
G|-------------------|-9-9-9--10--12-------|
D|-------------------|----------------10---|
A|-------------------|---------------------|
E|-------------------|---------------------|
     me amaste ami     cuando nadie me amo //

  |       C         |         G       |
E|-8-8-8--10-10--8-|--12--10-8-10----|
B|-----------------|---------------8-|
G|-----------------|-----------------|
D|-----------------|-----------------|
A|-----------------|-----------------|
E|-----------------|-----------------|
 // y me diste nombre   yo soy tu niña

  |         Am                  F
E|----12-12-10--8-10---|--------12-10-8-8-|
B|-8-----------------8-|-8-8-8------------|
G|---------------------|------------------|
D|---------------------|------------------|
A|---------------------|------------------|
E|---------------------|------------------|
  la niña de tus ojos   porque me amaste a mi //


  |     C    G      |     Am     F     |
E|-----12-10-8-8---|-----12-10-8-10---|
B|--8--------------|--8---------------|
G|-----------------|------------------|
D|-----------------|------------------|
A|-----------------|------------------|
E|-----------------|------------------|
 /// me amaste ami     me amaste ami /// x3



  |              C             |             G               |
E|--10-10--8-10--10--8-10--12-|--10-10--8-10--10--8-13--12--|
B|----------------------------|-----------------------------|
G|----------------------------|-----------------------------|
D|----------------------------|-----------------------------|
A|----------------------------|-----------------------------|
E|----------------------------|-----------------------------|
  // te amo mas que ami vida      te amo mas que ha mi vida//




  |              Am            |    F   |
E|--10-10--8-10--10--8-10--12-|--8-----|
B|----------------------------|--------|
G|----------------------------|--------|
D|----------------------------|--------|
A|----------------------------|--------|
E|----------------------------|--------|
   te amo mas que ha mi vida      mas
Composición de Daniel Calveti
2 vistas
    • ½ Tono
    • A
    • Bb
    • B
    • C
    • Db
    • D
    • Eb
    • E
    • F
    • F#
    • G
    • Ab
  • Agregar a la lista

    0 comentarios

    Ver todos los comentarios
    00:00 / 00:00
    Otros videos de esta canción
    Repetir Calidad Automático
    Otros videos de esta canción
    00:00 / 00:00
    Automático
    OK