Cifra Club

Dope Danny

Daniel Lioneye

Cifrado: Principal (guitarra y guitarra eléctrica)
tono: F

                                Album:
                       The King Of Rock'n Roll

e|---------------------------------------|
B|---------------------------------------|
G|---------------------------------------| x2
D|---------------------------------------|
A|----------1-0---0-------------1-0---0--|
E|-0-0-3--0-----3---3--0-0-3--0-----3----|

e|---------------------------------------|
B|---------------------------------------|
G|---------------------------------------|
D|----------1-0---0-------------1-0---0--|
A|-0-0-3--0-----3---3--0-0-3--0-----3----|
E|---------------------------------------|

e|---------------------------------------|
B|---------------------------------------|
G|---------------------------------------|
D|---------------------------------------|
A|----------1-0---0-------------1-0---0--|
E|-0-0-3--0-----3---3--0-0-3--0-----3----|
00:00 / 00:00
Otros videos de esta canción
Repetir
Otros videos de esta canción
Compositor no encontrado.
21 exhibiciones
    • ½ Tono
    • A
    • Bb
    • B
    • C
    • Db
    • D
    • Eb
    • E
    • F
    • F#
    • G
    • Ab
  • Agregar a la lista
    00:00 / 00:00
    OK