Cifra Club

Zamba Para Olvidar

Daniel Toro

Cifrado: Principal (guitarra y guitarra eléctrica)
tono: E
E||---|-------12--12--12--12--|--12------10---9----|--10-------8--7----|
B||---|-------13--13--13--13--|--13------12--11----|--12------10--8----|
G||---|-----------------------|--------------------|-------------------|
D||---|-----------------------|--------------------|-------------------|
A||---|-----------------------|--------------------|-------------------|
E||---|-----------------------|--------------------|-------------------|

   Q.   E  Q        Q.     E  Q       Q.     E  Q       H        Q
E|---8----5--7----|---8------7--5----|--3------0--5----|--0-------------|
B|--10----6--8----|--10------8--6----|--5------1--6----|--1--------3----|
G|----------------|------------------|-----------------|-----------4----|
D|----------------|------------------|-----------------|----------------|
A|----------------|------------------|-----------------|----------------|
E|----------------|------------------|-----------------|----------------|

  H.            Q     E   E   E   E      Q.      E   Q
E|-------------|-------12--12--12--12--|--12------10---9----|
B|--1----------|-------13--13--13--13--|--13------12--11----|
G|--2----------|-----------------------|--------------------|
D|-------------|-----------------------|--------------------|
A|-------------|-----------------------|--------------------|
E|-------------|-----------------------|--------------------|

   Q.    E  Q        Q.     E  Q        Q.     E  Q       Q.     E  Q
E|--10-----8--7----|---8------5--7----|---8------7--5----|--3------0--5----|
B|--12----10--8----|--10------6--8----|--10------8--6----|--5------1--6----|
G|-----------------|------------------|------------------|-----------------|
D|-----------------|------------------|------------------|-----------------|
A|-----------------|------------------|------------------|-----------------|
E|-----------------|------------------|------------------|-----------------|

  H        Q       H.
E|--0-------------|---------------|----------------| |
B|--1--------3----|--1------------|----------------| |
G|-----------4----|--2------------|---------------*| |
D|----------------|---------------|---------------*| |
A|----------------|---------------|----------------| |
E|----------------|---------------|----------------| |

Abreviaturas:

H = Blanca
Q = Negra
E = Corchea
. = Puntillo
Composición de Daniel Toro / Julio Fontana
29 vistas
    • ½ Tono
    • A
    • Bb
    • B
    • C
    • Db
    • D
    • Eb
    • E
    • F
    • F#
    • G
    • Ab
  • Agregar a la lista

    0 comentarios

    Ver todos los comentarios

    ¿Lograste tocar?

    0 Tocaron 0 Aún no

    ¡Graba un video tocando Zamba Para Olvidar y envíanoslo!

    00:00 / 00:00
    Otros videos de esta canción
    Repetir Calidad Automático
    Otros videos de esta canción
    00:00 / 00:00
    Automático
    OK