Cifra Club

Fidelidade

Danielle Cristina

Tablatura: Principal
reproducciones 724
Tono: F
Tom: F
Intro 2x: Dm  Bb  F  C


                 Dm Em F G A C Dm Em F G A C Dm
E|-------------------8--10--12--13--15--17--20--22~~~~-------||
B|-------------8--10-----------------------------------------||
G|---7--9--10------------------------------------------------||
D|-----------------------------------------------------------||
A|-----------------------------------------------------------||
E|-----------------------------------------------------------||


Dm                     Bb
Oh! Deus de Israel  eu sei
          C                     Gm          Dm
Que não vim a este mundo pra adorar outro Rei
                  Bb
Os leões estão rugindo sem parar
         C
Meu louvor incomodou
         Gm             Am         Dm
A todos que são contra Ti  oh! Jeová


                   Dm Em F G A C Dm  Em F G A C Dm
E|-------------------8--10--12--13--15--17--20--22~~~~-------||
B|-------------8--10-----------------------------------------||
G|---7--9--10------------------------------------------------||
D|-----------------------------------------------------------||
A|-----------------------------------------------------------||
E|-----------------------------------------------------------||


Parte 2:
Dm                  Bb
Nada pode intercalar o louvor do meu coração
C                         Gm                   Am  C Dm
Dos manjares eu abro mão os palácios não quero, não
                       F/C                         Bb
Eis me aqui como Daniel com os olhos focados no céu
                       Gm                           A7
Com o risco de morrer  pois o que importa é Lhe obedecer


        A Gm F Em Dm
E|------------------------||
B|------------------------||
G|------------------------||
D|---7--5-----------------||
A|---------8--7--5/7--5---||
E|------------------------||


Dm                    Bb            F
Senhor  não vou dividir minha adoração
          C         Dm
Exclusivo é o meu coração
            Bb                   F
Vivo só pra Ti  não abro mão do céu
                C       A7        Dm
mesmo diante da morte prefiro ser fiel

Solo:  ( Dm  Bb  F  C )
Dm
Aquele que habita no esconderijo do Altíssimo
C/E
Á sombra do Onipotente descansará
Gm
Direi do Senhor  Ele é o meu Deus
    A
O meu refúgio  a minha fortaleza
Dm
Ele me livra do laço do passarinheiro

  C/E                   Gm
E da peste perniciosa Ele me cobre com Suas penas
      A7
E debaixo de Suas asas estarei seguro
Bb                             Gm
Eu não temo o espanto noturno  nem seta que voe de dia
 Dm                Dm/C
Nem peste que ande na escuridão
      C
Nem mortandade que assole ao meio dia
Gm
Não importa quantos caiam do meu lado
F/A
Direita, esquerda  eu sou protegido
Bb9
Se eu for fiel eu moverei o céu
C9                       Dm
Ele envia anjos para me guardar.
Dm                  Bb             F
Senhor  não vou dividir minha adoração
          C             Dm
Exclusivo é o meu coração
             Bb                   F
Vivo só pra Ti  não abro mão do céu
              C        A7         Dm
Até diante da morte prefiro ser fiel

( Dm  Bb  F  C Am Dm )

0 comentarios

    mostrar más comentarios

    ¿Conseguiste tocar?

    58tocaron3aún no

    ¡Graba un vídeo tocando Fidelidade y envianoslo!

    00:00 / 00:00
    outros vídeos desta música
    repetirqualidadeautomática
    Outro vídeos desta música
      00:00 / 00:00
      automática
      OK