Cifra Club

Mala Fama

Danna Paola

Cifrado: Principal (guitarra y guitarra eléctrica)
Selo Cifra Club: esta cifra foi revisada para atender aos critérios oficiais da nossa Equipe de Qualidade.
tono: F#m
E|----------------------------------------------------------------------------+|
B|----------------------------------------------------------------------------+|
G|----------------------------------------------------------------------------+|
D|----------------------------------------------------------------------------+|
A|-------2--4-----------------2-----------------------------------------------+|
E|-2--5-----------------2--5-----1--------------------------------------------+|

(Figura 1)
Fama, Dicen que tengo mala fama
Que me enamoro por la noche
Y se me pasa por la mañana, ah

(Figura 1)
Culpa, Lo siento no tengo la culpa
Que no me den lo suficiente
Yo soy exigente, Y los nenes se asustan, hum

(Figura 1)
Lo primero es que sea soltero
Con cerebro sería el dos
Que esté bueno va de tercero
Y de paso que tenga buen humor


Figura 2 (Coro 1 y 3)
E|----------------------------------------------------------------------------+|
B|----------------------------------------------------------------------------+|
G|----------------------------------------------------------------------------+|
D|-----------------3----------------------4--7-------------4--7---------------+|
A|-------4-2----4------------4-2---2-4-5---------4---2-4-5---------4--2-------+|
E|-2---5---------------2---5---------------------------------------------5--4-+|

Figura 3 (Coro 2)
E|----------------------------------------------------------------------------+|
B|----------------------------------------------------------------------------+|
G|----------------------------------------------------------------------------+|
D|-----------------3----------------------4--7-------------4--7---------------+|
A|-------4-2----4------------4-2---2-4-5---------4---2-4-5--------------------+|
E|-2---5---------------2---5--------------------------------------------------+|

(Figura 2)

F#m
Así, sí
Bm               F#m
Sí lo quiero para mí, mí
Bm
Cuando me lo encuentre
D           C#         D       C#
Yo, no, no, no lo dejo ir de aquí


(Figura 3)

F#m
Así, sí
Bm               F#m
Sí lo quiero para mí, mí
Bm
Cuando me lo encuentre
D           C#         D       C#
Yo, no, no, no lo dejo Mira que no
Yo, no, no lo suelto, no

(Figura 2)

F#m         Bm           F#m
Que si me fui con Maluma, no
            Bm            D
Dicen que Yatra y Ozuna, no
          C#
Yo duermo sola en mi cama
D                C#
Y no me preocupa mi mala Fama

(Solo Voz)
Yo hago lo que quiero
Si me da la gana
No busco un Romeo
De fin de semana
Que me venda las estrellas
Sin llevarme al cielo
Las promesas falsas
Se las lleva el viento


(Figura 3)
Vuela que vuela que se perdió
Si hay un culpable esa no soy yo
Si digo que no es porque no quiero
Pero al indicado no le pongo un pero

(Figura 3)
Vuela que vuela que se perdió
Si hay un culpable esa no soy yo
Si digo que no es porque no quiero
Pero al indicado


CORO.......
(Figura 2)

F#m
Así, sí
Bm               F#m
Sí lo quiero para mí, mí
Bm
Cuando me lo encuentre
D           C#         D       C#
Yo, no, no, no lo dejo ir de aquí


(Figura 3)

F#m
Así, sí
Bm               F#m
Sí lo quiero para mí, mí
Bm
Cuando me lo encuentre
D           C#         D       C#
Yo, no, no, no lo dejo Mira que no
Yo, no, no lo suelto, no

(Figura 2)

F#m         Bm           F#m
Que si me fui con Maluma, no
            Bm            D
Dicen que Yatra y Ozuna, no
          C#
Yo duermo sola en mi cama
D                C#
Y no me preocupa mi mala Fama


(Figura 1)
Lo primero es que sea soltero
Con cerebro sería el dos
Que esté bueno va de tercero
Y de paso que tenga buen humor


(Figura 2)

F#m
Así, sí
Bm               F#m
Sí lo quiero para mí, mí
Bm
Cuando me lo encuentre
D           C#         D       C#
Yo, no, no, no lo dejo ir de aquí


(Figura 3)

F#m
Así, sí
Bm               F#m
Sí lo quiero para mí, mí
Bm
Cuando me lo encuentre
D           C#         D       C#
Yo, no, no, no lo dejo Mira que no
Yo, no, no lo suelto, no
Otros videos de esta canción
    4.629 exhibiciones
      • ½ Tono
      • Am
      • Bbm
      • Bm
      • Cm
      • C#m
      • Dm
      • Ebm
      • Em
      • Fm
      • F#m
      • Gm
      • G#m
    • Agregar a la lista

    Afinación de cifrado

    Afinador online

      OK