Cifra Club

Storm King

Dar Williams

Cifrado: Principal (guitarra y guitarra eléctrica)
Selo Cifra Club: esta cifra foi revisada para atender aos critérios oficiais da nossa Equipe de Qualidade.
tono: D
[Verse/Chorus]
 |D               |G               |
E|----------------|----------------|
B|----3-----3-----|----3-----3-----|
G|--2-----2-----2-|--0-----0-----0-|
D|0-----------0---|-----------0----|
A|------0---------|------2---------|
E|----------------| 3---------------|
  ^ . ^ . ^ . ^ .  ^ . ^ . ^ . ^ .  

And you can end it like this:
[End]
 |D               |G               |D               ||
E|----------------|----------------| 0h2-------------||
B|----3-----3-----|----3-----3-----| 3---------------||
G|--2-----2-----2-|--0-----0-----0-| 2---------------||
D|0-----------0---|-----------0----| 0---------------||
A|------0---------|------2---------|----------------| |
E|----------------| 3---------------|----------------||
  ^ . ^ . ^ . ^ .  ^ . ^ . ^ . ^ .  ^ . ^ . ^ . ^ .  

Lyrics available on her website:
The clouds will form a crown,
Circling the rocky mountaintop,
Telling us the rain is coming soon,
As we sail the river up and down
The storm king has borne the seasons all,
Worn them upon his brow,
He guides the watchful boats below,
I am the storm king now.
He is bemused, sometimes delighted,
Sees the trains, the hikers on the hill
In our progress and our industry
May we grow better still.
The storm king has seen us from above,
Rising up on the starboard bow
He knows the turning of the years
I am the storm king now.
The storm king has borne the seasons all,
Worn them upon his brow,
He guides the watchful boats below,
I am the storm king now.
I am the storm king now.
Otros videos de esta canción
    8 exhibiciones
      • ½ Tono
      • A
      • Bb
      • B
      • C
      • Db
      • D
      • Eb
      • E
      • F
      • F#
      • G
      • Ab
    • Agregar a la lista

    Afinação da cifra

    Afinador online

      Ops (: Contenido disponible solo en portugués.
      OK