Cifra Club

Voices

Dario G

Cifrado: Principal (guitarra y guitarra eléctrica)
tono: A
**Normal Tuning**
*parte comum

e|-14-12-------|--------|-14-12-10-15-|-------------|
B|-------10----|-7-8-10-|-------------|-12-13-15-10-|
G|-------------|--------|-------------|-------------|
D|-------------|--------|-------------|-------------|
A|-------------|--------|-------------|-------------|
E|-------------|--------|-------------|-------------|


*parte diferente (só toca umas 2x ao longo da música)

e|-14-12-10----|--------|-14-12-10-15-|-------11-14-|
B|----------10-|-7-8-10-|-------------|-12-14-------|
G|-------------|--------|-------------|-------------|
D|-------------|--------|-------------|-------------|
A|-------------|--------|-------------|-------------|
E|-------------|--------|-------------|-------------|

*pode ser tocada também apenas na 1ª corda:
 (mas na minha opinião o som sai bem pior)

(comum)
e|-14-12-5-----|-2-3-5--|-14-12-10-15-|-7-8-10-5----|

(diferente)
e|-14-12-10-5--|-2-3-5--|-14-12-10-15-|-7-9-11-14---|


letra:

We sailed over seven seas
Searching for that missing key
Unlock a new world harmony

Climb the highest mountain range
Then we took the longest train
Looking for our perfect refrain

I hear voices in the sky
(In the sky)
In the sky
(In the sky)

Hidden rhythms in the rivers run
Blinding beats in the desert sun
Hear them today play all as one

Distant voices in a far off sky
Led us to the elusive prize
To the new sound we testify

Na-Na-Na-Na-Na-Yeeeeeeh
Na-Na-Na-Na-Na-Yeh
(Etc)

(Chant)

There's hidden rhythms in the sun
In the sun
I hear voices in the sky
In the sky
00:00 / 00:00
Otros videos de esta canción
Repetir
Otros videos de esta canción
Composición de Scott Rosser
Colaboración y revisión:
  • Leandro Tupimaniac
25 vistas
    • ½ Tono
    • A
    • Bb
    • B
    • C
    • Db
    • D
    • Eb
    • E
    • F
    • F#
    • G
    • Ab
  • Agregar a la lista

    0 comentarios

    Ver todos los comentarios

    ¿Lograste tocar?

    0 Tocaron 0 Aún no

    ¡Graba un video tocando Voices y envíanoslo!

    00:00 / 00:00
    OK