Cifra Club

Hell's On It's Knees

Dark Angel

Cifrado: Principal (guitarra y guitarra eléctrica)
tono: G
E|----------0--------|----------0--------|----------0--------|----------0--------|
B|------0-----0------|------0-----0------|------0-----0------|------0-----0------|
G|----5---5-----5----|----4---4-----4----|----2---2-----2----|----1---1-----1----|
D|--7-------------7--|--5-------------5--|--3-------------3--|--2-------------2--|
A|-------------------|-------------------|-------------------|-------------------|
E|-------------------|-------------------|-------------------|-------------------|

E|----------0--------|----------0--------|----------0--------|----------0--------|
B|------0-----0------|------0-----0------|------0-----0------|------0-----0------|
G|----5---5-----5----|----4---4-----4----|----2---2-----2----|----1---1-----1----|
D|--7-------------7--|--5-------------5--|--3-------------3--|--2-------------2--|
A|-------------------|-------------------|-------------------|-------------------|
E|-------------------|-------------------|-------------------|-------------------|

E|----------0--------|----------0--------|----------0--------|--0--|
B|------3-----3------|------3-----3------|------3-----3------|--0--|
G|----2---2-----2----|----1---1-----1----|----2---2-----2----|--1--|
D|--3-------------3--|--2-------------2--|--3-------------3--|--2--|
A|-------------------|-------------------|-------------------|-----|
E|-------------------|-------------------|-------------------|-----|

(0:50)
E|----------0--------|-------------------|-------------------|--------------------|
B|------0-----0------|----------0--------|----------0--------|--------------------|
G|----0---0-----0----|------0-----0------|------0-----0------|--------0--------0--|
D|--2-------------2--|----2---2-----2----|----1---1-----1----|------0--------0----|
A|-------------------|--3-------------3--|--2-------------2--|----2--------1------|
E|-------------------|-------------------|-------------------|--3--------2--------|

E|-------------------|-------------------|
B|-------------------|-------------------|
G|----------0--------|----------0--------|
D|------2-----2------|------2-----2------|
A|----2---2-----2----|----2---2-----2----|
E|--0-------------0--|--0-------------0--|

E|----------0--------|-------------------|-------------------|--------------------|
B|------0-----0------|----------0--------|----------0--------|--------------------|
G|----0---0-----0----|------0-----0------|------0-----0------|--------0--------0--|
D|--2-------------2--|----2---2-----2----|----1---1-----1----|------0--------0----|
A|-------------------|--3-------------3--|--2-------------2--|----2--------1------|
E|-------------------|-------------------|-------------------|--3--------2--------|

E|-----|
B|-----|
G|--9--|
D|--9--|
A|--7--|
E|--0--|

Riff 1 - 8x:
E|--------------------------------|
B|--------------------------------|
G|--------------------------------|
D|-------7------7------7--9--8-8--|
A|--0000-5-0000-5-0000-5--7--6-6--|
E|--------------------------------|

E|-----|-----|-----|-----|---------|-----|-----|-----|-----|
B|-----|-----|-----|-----|---------|-----|-----|-----|-----|
G|--9--|--5--|--7--|--4--|---------|--9--|--5--|-----|--7--|
D|--9--|--5--|--7--|--4--|---------|--9--|--5--|--7--|--7--|
A|--7--|--3--|--5--|--2--|--3-2----|--7--|--3--|--7--|--5--|
E|-----|-----|-----|-----|------3--|-----|-----|--5--|-----|

Riff 1 - 4x
E|--------------------------------|
B|--------------------------------|
G|--------------------------------|
D|-------7------7------7--9--8-8--|
A|--0000-5-0000-5-0000-5--7--6-6--|
E|--------------------------------|

E|-----|-----|-----|-----|---------|-----|-----|-----|-----|
B|-----|-----|-----|-----|---------|-----|-----|-----|-----|
G|--9--|--5--|--7--|--4--|---------|--9--|--5--|-----|--7--|
D|--9--|--5--|--7--|--4--|---------|--9--|--5--|--7--|--7--|
A|--7--|--3--|--5--|--2--|--3-2----|--7--|--3--|--7--|--5--|
E|-----|-----|-----|-----|------3--|-----|-----|--5--|-----|

Riff 2 - 4x:
E|-------------------------------|
B|-------------------------------|
G|-------------------------------|
D|-------7------8------7------5--|
A|--0000-5-0000-6-0000-5-0000-3--|
E|-------------------------------|

Riff 1 - 4x:
E|--------------------------------|
B|--------------------------------|
G|--------------------------------|
D|-------7------7------7--9--8-8--|
A|--0000-5-0000-5-0000-5--7--6-6--|
E|--------------------------------|

E|-----|-----|-----|-----|---------|-----|-----|-----|-----|
B|-----|-----|-----|-----|---------|-----|-----|-----|-----|
G|--9--|--5--|--7--|--4--|---------|--9--|--5--|-----|--7--|
D|--9--|--5--|--7--|--4--|---------|--9--|--5--|--7--|--7--|
A|--7--|--3--|--5--|--2--|--3-2----|--7--|--3--|--7--|--5--|
E|-----|-----|-----|-----|------3--|-----|-----|--5--|-----|

Riff 1 - 4x:
E|--------------------------------|
B|--------------------------------|
G|--------------------------------|
D|-------7------7------7--9--8-8--|
A|--0000-5-0000-5-0000-5--7--6-6--|
E|--------------------------------|

E|-----|-----|-----|-----|---------|-----|-----|-----|-----|
B|-----|-----|-----|-----|---------|-----|-----|-----|-----|
G|--9--|--5--|--7--|--4--|---------|--9--|--5--|-----|--7--|
D|--9--|--5--|--7--|--4--|---------|--9--|--5--|--7--|--7--|
A|--7--|--3--|--5--|--2--|--3-2----|--7--|--3--|--7--|--5--|
E|-----|-----|-----|-----|------3--|-----|-----|--5--|-----|

Riff 1 - 4x:
E|--------------------------------|
B|--------------------------------|
G|--------------------------------|
D|-------7------7------7--9--8-8--|
A|--0000-5-0000-5-0000-5--7--6-6--|
E|--------------------------------|

E|-----|-----|-----|-----|---------|-----|-----|-----|-----|
B|-----|-----|-----|-----|---------|-----|-----|-----|-----|
G|--9--|--5--|--7--|--4--|---------|--9--|--5--|-----|--7--|
D|--9--|--5--|--7--|--4--|---------|--9--|--5--|--7--|--7--|
A|--7--|--3--|--5--|--2--|--3-2----|--7--|--3--|--7--|--5--|
E|-----|-----|-----|-----|------3--|-----|-----|--5--|-----|

Riff 1 - 4x:
E|--------------------------------|
B|--------------------------------|
G|--------------------------------|
D|-------7------7------7--9--8-8--|
A|--0000-5-0000-5-0000-5--7--6-6--|
E|--------------------------------|

E|-----------------------|
B|-----------------------|
G|-----------------------|
D|--9-8-8-9-8-8-9-8-8----|
A|--7-6-6-7-6-6-7-6-6-7--|
E|--------------------5--|

Composición de Dark Angel
Colaboración y revisión:
  • Juarez Junior
115 vistas
    • ½ Tono
    • A
    • Bb
    • B
    • C
    • Db
    • D
    • Eb
    • E
    • F
    • F#
    • G
    • Ab
  • Agregar a la lista

    0 comentarios

    Ver todos los comentarios

    ¿Lograste tocar?

    0 Tocaron 0 Aún no

    ¡Graba un video tocando Hell's On It's Knees y envíanoslo!

    00:00 / 00:00
    Otros videos de esta canción
    Repetir Calidad Automático
    Otros videos de esta canción
    00:00 / 00:00
    Automático
    OK