Cifra Club

Busted Stuff

Dave Matthews Band

Cifrado: Versão 2 (guitarra y guitarra eléctrica)
tono: G
Play this and listen to the song for the rhythm and you'll be like dave

Intro and verse
E|-|------------|------------|---------------------------------------|
B|-|--1---1-----|--1---1-----|--1---1--------------------------------|
G|-|--0---0--4--|--0---0-----|--0---2---------------4-4--------------|
D|-|--0h2p0--5--|--0h2p0---4-|--0h2p0---2--4--2--4--5-5--------------|
A|-|--3---3--5--|--3---3---5-|--3---3---3--5--3--5--5-5--------------|
E|-|---------3--|----------5-|----------5--5--5--2--3-3--------------|

 you Know she's goanna leave my 
               broken heart behind     I dig what she's giving up
chorus
E|-|------------|----------------|--------|-------------------------|
B|-|------------|----------------|--------|-------------------------|
G|-|------------|----------------|--------|-----4-------------------|
D|-|--4----2----|--5----4-4h5p4--|--4-2---|---4-5-------------------|
A|-|--5----3----|--5----5-------5|--5-3---|---5-5-------------------|
E|-|--5----5----|--3----2--------|--5-5---|---2-3-------------------|

Leading in to the end of the chorus      Yeah yeeeah, she's the one for me
E|-|------------|----------------|----------|-------------------------|
B|-|------------|----------------|----------|-------------------------|
G|-|------------|----------------|----------|---7---------------------|
D|-|--4----2----|--5----4-4h5p4--|--4---2---|---0---------------------|
A|-|--5----3----|--5----5-------5|--5---3---|---x---------------------|
E|-|--5----5----|--3----2--------|--5---5---|---6---------------------|

---------------------------------
spend your living days well;)
00:00 / 00:00
Otros videos de esta canción
Repetir
Otros videos de esta canción
Composición de Dave Matthews
1 vistas
    • ½ Tono
    • A
    • Bb
    • B
    • C
    • Db
    • D
    • Eb
    • E
    • F
    • F#
    • G
    • Ab
  • Agregar a la lista

    0 comentarios

    Ver todos los comentarios

    ¿Lograste tocar?

    0 Tocaron 0 Aún no

    ¡Graba un video tocando Busted Stuff y envíanoslo!

    00:00 / 00:00
    OK