Cifra Club

Cornbread

Dave Matthews Band

Cifrado: Versão 2 (guitarra y guitarra eléctrica)
tono: C
Tabbed by: Scott S.
Email: S*

Tuning: Standard

Verse:

e|---------------------------------------------------------------------------|
B|----------------------------------------------------------------3--3-------|
G|---------------------------------------------------------------------------|
D|---5-5-5-5h7p5--3-5---5-5-5-5h7p5--3-5------------5-5-5-5h7p5------2-------|
A|----------------------------------------3-----------------------2--3-------|
E|--------------------------------------------3-------------------3----------|

Chorus:

e|---------------------------------|
B|------------------3-3-3--3-3-3---|
G|---------------------------------|
D|--5-5-5---3-3-3----------2-2-2---|  X 2
A|--3-3-3---1-1-1---2-2-2--3-3-3---|
E|------------------3-3-3----------|

Bridge:

e|----------------------------------------|
B|----------------------------------------|
G|---8--8--8--7--7--7---6--6--6--5--5--5--|
D|--10-10-10-10-10-10--10-10-10-10-10-10--|   X2
A|----------------------------------------|
E|----------------------------------------|

| /  slide up
| \  slide down
| h  hammer-on
| p  pull-off
| ~  vibrato
| +  harmonic
| x  Mute note
Composición de Dave Matthews / Mark Batson
    • ½ Tono
    • A
    • Bb
    • B
    • C
    • Db
    • D
    • Eb
    • E
    • F
    • F#
    • G
    • Ab
  • Agregar a la lista

    0 comentarios

    Ver todos los comentarios

    ¿Lograste tocar?

    0 Tocaron 0 Aún no

    ¡Graba un video tocando Cornbread y envíanoslo!

    00:00 / 00:00
    Outros vídeos desta música
    Repetir Calidad Automático
    Outros vídeos desta música
    00:00 / 00:00
    Automático
    OK