Cifra Club

Crush

Dave Matthews Band

Cifrado: Versão 4 (guitarra y guitarra eléctrica)
Acompaña nuestras novedades de Cifra Club en español.
¡Sigue nuestro perfil en Instagram!
tono: D
Tabbed by:
Email:

Tuning:
Intro/Verse
e|---0--0--0-----------------------------------------------------------------|
B|---3--3--3---3--3-3---2--2--2---------3--3---------------------------------|
G|---4--4--0---2--2-2---2--2--2---4--4--5--5---5--5---5--5-------------------|
D|---4--4--4-----------------------------------5--5---5--5---Repeat----------|
A|---2--2--2-----------------------------------3--3---2--2-------------------|
D|---0--0--0---2--2-2---2--2--2---3--3--5--5---------------------------------|
Pre-Course
"Feel so right..."
e|---------------------------------------------------------------------------|
B|---------------------------------------------------------------------------|
G|--5--5---4--4--4-----------------------------------------------------------|
D|--5--5---2--2--2-----------------------------------------------------------|
A|--3--3---2--2--2-----------------------------------------------------------|
D|---------2--2--2-----------------------------------------------------------|
Course
"Lovely Lady..."
e|---------------------------------------------------------------------------|
B|---------------------------------------------------------------------------|
G|--7--7--7--7-/--9--9--9--9----5--5--5----4--4--4---------------------------|
D|--5--5--5--5-/--9--9--9--9----5--5--5----2--2--2-----Repeat----------------|
A|--5--5--5--5-/--7--7--7--7----3--3--3----2--2--2---------------------------|
D|--5--5--5--5-/--7--7--7--7---------------2--2--2---------------------------|
Bridge
"Crazy iam thinking...."
e|---------------------------------------------------------------------------|
B|---------------------------------------------------------------------------|
G|--12-12-12---12--12--12---12--12---12--12--12------------------------------|
D|--10-10-10---12--12--12---10--10---9---9---9-------------------------------|
A|--8--8--8----10--10--10---10--10---10--10--10------------------------------|
D|---------------------------------------------------------------------------|
Break Down
"Or am I dreamingg...?"
e|---------------------------------------------------------------------------|
B|---------------------------------------------------------------------------|
G|--4--4--4------------------------------------------------------------------|
D|--2--2--2----5-5--3-3--2-2---10-10--9-9--8-8--7-7---5-5--3-3--2-2----------|
A|--2--2--2----5-5--3-3--2-2---10-10--9-9--8-8--7-7---5-5--3-3--2-2----------|
D|--2--2--2----5-5--3-3--2-2---10-10--9-9--8-8--7-7---5-5--3-3--2-2----------|
Then back to chorus...
I got this by watching the aol sessions repeatly, but just pratice and you'll work it 
time to learn dave...but good luck!


| /  slide up
| \  slide down
| h  hammer-on
| p  pull-off
| ~  vibrato
| +  harmonic
| x  Mute note
===============================================================================
Composición de Dave Matthews
1 vistas
    • ½ Tono
    • A
    • Bb
    • B
    • C
    • Db
    • D
    • Eb
    • E
    • F
    • F#
    • G
    • Ab
  • Agregar a la lista

    0 comentarios

    Ver todos los comentarios

    ¿Lograste tocar?

    0 Tocaron 0 Aún no

    ¡Graba un video tocando Crush y envíanoslo!

    00:00 / 00:00
    Outros vídeos desta música
    Repetir Calidad Automático
    Outros vídeos desta música
    00:00 / 00:00
    Automático
    OK